>
 >
Love Of A Lifetime

Love Of A Lifetime Guitar Tabs

Firehouse - Love Of A Lifetime chords, tabs, tablatures, lyrics

Guitar lessons | Add/correct | Request | Top 50 tabs Artists:  A B C D E F G H I J K L M N O P Q R S T U V W X Y Z 0-9

Love Of A Lifetime Guitar Tabs – Firehouse

CD, Sheet music, Poster

Do you like Love Of A Lifetime? Share with your friends now
ChordsChords v2Chords v3Chords v4TabsTabs v2Tabs v3Tabs v4Ukulele
LOVE OF A LIFETIME
By firehouse


Chords used

          G5                   B5                   C5                   A5
      3 x 0 0 3 3          x 2 4 4 x x          x 3 5 5 x x          x 0 2 2 x x

          D5
      x 5 7 7 x x

 Intro
  

  Gtr I
|---------3---------------0-------|-------3-------------0--------|
|-------3---3-----------3---3-----|---------5---------3---3------|
|-----0-------0-------2-------2---|-----4-----4-----2-------2----|
|---0-----------0---0-----------0-|---2---------2-0-----------0--|
|---------------------------------|------------------------------|
|-3---------------2---------------|-0----------------------------|


                               
|-------0-------------2-------|-------0-----------0-----2-----3-----2-(2)-----|
|---------1-------------3-----|---------1-----------3-----3-----3---------3---|
|-----0-----0-------2-----2---|-----0-----0-----2-----2-----2-----2---------2-|
|---2---------2---4---------4-|---2---------2-0-------------------------------|
|-0-------------2-------------|-3---------------------------------------------|
|-----------------------------|-----------------------------------------------|


   Verse
 
||----------3---------------0-------|-------3-------------0-------|
||o-------3---3-----------3---3-----|---------5---------3---3-----|
||------0-------0-------2-------2---|-----4-----4-----2-------2---|
||----0-----------0---0-----------0-|---2---------2-0-----------0-|
||o---------------------------------|-----------------------------|
||--3---------------2---------------|-0---------------------------|


|-------0-------------2-------|
|---------1-------------3-----|
|-----0-----0-------2-----2---|
|---2---------2---4---------4-|
|-0-------------2-------------|
|-----------------------------||-------0-----------0-----2-----3-----2-(2)------||
|---------1-----------3-----3-----3---------3---o||
|-----0-----0-----2-----2-----2-----2---------2--||
|---2---------2-0--------------------------------||
|-3---------------------------------------------o||
|------------------------------------------------||


 Bridge

  Gtr II
|-0----^2--0-------|-0----^2--5-------|-0----2--0-------|
|-1----^3----3-----|-1----^3----3-----|-1----3----3-----|
|-0----^2------2---|-0----^2------2---|-0----2------2---|
|-2----^4--------4-|-2----^4--------4-|-2----4--------4-|
|-0----^2----------|-0----^2----------|-0----2----------|
|------------------|------------------|-----------------|


                    Chorus
                  
            
            Gtr III
|-0----2----------||-3---------|-----------|
|-1----3----------||-3----3----|-----------|
|-0----2----x\----||-0----4----|-5----7----|
|-2----0----x\----||-0----4----|-5----7----|
|-3---------------||------2----|-3----5----|
|-----------------||-3---------|-----------|


|-3---------|-----------|-3---------|-----------|
|-3----3----|-----------|-3----3----|-----------|
|-0----4----|-5----7----|-0----4----|-5----7----|
|-0----4----|-5----7----|-0----4----|-5----7----|
|------2----|-3----5----|------2----|-3----5----|
|-3---------|-----------|-3---------|-----------|


|------------|-------------|
|------------|-------------|
|-2----/4----|-/5----/7----|
|-2----/4----|-/5----/7----|
|-0----/2----|-/3----/5----|
|------------|-------------|
|
| Gtr IV
|------------|-------------|
|------------|-------------|
|------------|-------------|
|------------|-------------|
|------------|-------------|
|------------|-------------|


                                         
|---3------------------------|-----------------------|
|---3------------3-----------|-----------------------|
|---0------------4-----------|-5-----------7---------|
|---0------------4-----------|-5-----------7---------|
|----------------2-----------|-3-----------5---------|
|---3------------------------|-----------------------|
|
|        \1/          \1/           \1/        \1/
|   ~~~          ~~            ~           ~~~~~~~~
|----------------------------|-----------------------|
|----------------------------|-----------------------|
|-/12---14---12-11---12---11-|-9---11---9-----14-----|
|----------------------------|------------12---------|
|----------------------------|-----------------------|
|----------------------------|-----------------------|


 2nd Verse
  G5
  Gtr IV
   |
   /

  Gtr I
|----------3---------------0-------|-------3-------------0-------|
|--------3---3-----------3---3-----|---------5---------3---3-----|
|------0-------0-------2-------2---|-----4-----4-----2-------2---|
|----0-----------0---0-----------0-|---2---------2-0-----------0-|
|----------------------------------|-----------------------------|
|--3---------------2---------------|-0---------------------------|
|
| Gtr III
|----------------------------------|-----------------------------|
|----------------------------------|-----------------------------|
|-12-------------------------------|-----------------------------|
|----------------------------------|-----------------------------|
|----------------------------------|-----------------------------|
|----------------------------------|-----------------------------|


|-------0-------------2-------|-------0-----------0-----2-----|
|---------1-------------3-----|---------1-----------3-----3---|
|-----0-----0-------2-----2---|-----0-----0-----2-----2-----2-|
|---2---------2---4---------4-|---2---------2-0---------------|
|-0-------------2-------------|-3-----------------------------|
|-----------------------------|-------------------------------|


|---------3---------------0-------|-------3-------------0-------|
|-------3---3-----------3---3-----|---------5---------3---3-----|
|-----0-------0-------2-------2---|-----4-----4-----2-------2---|
|---0-----------0---0-----------0-|---2---------2-0-----------0-|
|---------------------------------|-----------------------------|
|-3---------------2---------------|-0---------------------------|


                                                              
                               
|-------0-------------2-------|-------0-----------0-----2-----3-----2-(2)-----||
|---------1-------------3-----|---------1-----------3-----3-----3---------3---||
|-----0-----0-------2-----2---|-----0-----0-----2-----2-----2-----2---------2-||
|---2---------2---4---------4-|---2---------2-0-------------------------------||
|-0-------------2-------------|-3---------------------------------------------||
|-----------------------------|-----------------------------------------------||


 Guitar Solo
  
  C5                                                    B5

  Gtr IV
    |                                                     |
    /                                                     /

  Gtr III
|--------------------------------------------------------------------------------|
|--------------------------------------------------------------------------------|
|-----12-14b16==(14)r(14)b16==(14)r(14)p12----12-14b16==(14)r(14)p12----12-12----|
|-/14--------------------------------------14------------------------14-------14-|
|--------------------------------------------------------------------------------|
|--------------------------------------------------------------------------------|


  A5                            D5
    |                            |                          |        |
    /                            /                          /        /

                      T          T     T     T     T     T     T     T     T     T     T     T     T
|-------------------------------------------------------------------------------------------------------|
|-----15-17b19==(17)-20p17r(17)-19p15h19p15h19p15h19p15h19p15h19p15h19p15h19p15h19p15h19p15h19p15h19p15-|
|-/16---------------------------------------------------------------------------------------------------|
|-------------------------------------------------------------------------------------------------------|
|-------------------------------------------------------------------------------------------------------|
|-------------------------------------------------------------------------------------------------------|   |     ||||| |     |||| |        |        |        |        |        |        |           |        |
   /     ///// /     //// /        /        /        /        /        /        /           /        /

   T           T          T     T     T     T     T     T     T     T     T     T     T     T     T
|-------------22tr17-----22p17h22p17h24p17h24p17h24p17h24p17h25p17h26p17h27p17h28p17h29p17h29p17h29/--||
|-22tr19----------------------------------------------------------------------------------------------||
|-----------------------------------------------------------------------------------------------------||
|-----------------------------------------------------------------------------------------------------||
|-----------------------------------------------------------------------------------------------------||
|-----------------------------------------------------------------------------------------------------||


 Chorus (Outro)

|-----------|-----------|-----------|------------|
|-----------|-----------|-----------|------------|
|------6----|-7---------|------6----|-7----------|
|-7----6----|-7---------|-7----6----|-7----------|
|-7----4----|-5----7----|-7----4----|-5----------|
|-5---------|------4----|-5---------|------4-5-7-|


|-----------|-----------|-----------|-----------|
|-----------|-----------|-----------|-----------|
|------6----|-7----9----|-4----6----|-7----9----|
|-7----6----|-7----9----|-4----6----|-7----9----|
|-7----4----|-5----7----|-2----4----|-5----7----|
|-5---------|-----------|-----------|-----------|


|-----------|-----------|-----------|-----------|
|-----------|-----------|-----------|-----------|
|------6----|-7----9----|------6----|-7----9----|
|-7----6----|-7----9----|-7----6----|-7----9----|
|-7----4----|-5----7----|-7----4----|-5----7----|
|-5---------|-----------|-5---------|-----------|


|-----------|-----------|-----------|-----------|--------|
|-----------|-----------|-----------|-----------|--------|
|------6----|-7----9----|-4----6----|-7----9----|-(9)----|
|-7----6----|-7----9----|-4----6----|-7----9----|-(9)----|
|-7----4----|-5----7----|-2----4----|-5----7----|-(7)----|
|-5---------|-----------|-----------|-----------|--------|


                                
  Gtr I
|---------0--------------4-------|-------0---------------0-------|-^0----*|
|-------2---2--------------5-----|-----3---3---------------0-----|-^2----*|
|-----2-------2--------4-----4---|---2-------2---------1-----1---|-^2----*|
|---2-----------2----6---------6-|-0-----------0-----2---------2-|-^2----*|
|-0---------------/4-------------|-----------------2-------------|-^0----*|
|--------------------------------|---------------0---------------|-------*|
===========


Firehouse
                               
Words & Music by
        Bill Leverty & C. J. Snare

NOTEs: (1) Tune guitar down 1/2-step to play along with CD.
       (2) Acoustic part sounds great with a 12-string!
       (3) I did not attempt to tab the solo.
       
INTRO (acoustic):

  keyboard    G5                D5(add9)/F#           Em
E ---------|-----------3-----------------0---------|----------3---------
B ---------|---------3---3-------------3---3-------|-------------5------
G ---------|-------0-------0---------2-------2-----|-------4-------4----
D ---------|-----0-----------0-----0-----------0---|-----2-----------2--
A ---------|---------------------------------------|--------------------
E ---------|--3-----------------2------------------|--0-----------------

    D5(add9)            Am7            Bm7                 C    
E ---------0---------|---------0--------------2---------|--------0------
B -------3---3-------|-----------1--------------3-------|----------1----
G -----2-------2-----|-------0-----0--------2-----2-----|------0-----0--
D --0------------0---|-----2---------2----4---------4---|----2---------2
A -------------------|--0--------------2----------------|--3------------
E -------------------|----------------------------------|---------------

    D5(add9)       Dsus            D
E ---------0-------2-------3-------2-----------|
B -----------3-------3-------3-----------3-----|
G -----2-------2-------2-------2-----------2---|
D --0------------------------------------------|
A ---------------------------------------------|
E ---------------------------------------------|

Play this rhythm pattern throughout the verses:

VERSE 1:
I guess the time was right for us to say
we'd take our time and live our lives
together day by day.

We'll make a wish and send it on a prayer.
We know our dreams can all come true
with love that we can share.

BRIDGE:

( ) = pick in reverse (do not strum)

     Am7         Bm7    (B11)
With you I never wonder
   Am7               Bm7
will you be there for me.
     Am7           Bm7
With you I never wonder.
  (B11)         C       D
You're the right one for me.

CHORUS:
  G5                    Bm       C5      D5
I finally found the love of a lifetime.
  G5                   Bm            C5    D5
A love to last my whole life through.
  G5                    Bm       C5      D5
I finally found the love of a lifetime.
  A5          B5        C5         
Forever in my heart, I finally found the
  D5          G5     Bm     C5     D5
love of a lifetime.

VERSE 2:
With every kiss our love is like brand new,
and every star up in the sky was made
for me and you.

Still we both know that the road is long.
We know that we will be together
because our love is strong.

(repeat Chorus)

INSTRUMENTAL (electric solo goes here):
C5  B5  A5  D5
                Oh! ............  I
                
OUT-CHORUS (backround vocals also come in):
A5                   C#5       D5      E/G#
finally found the love of a lifetime.
   A5                 C#5            D5    G#bar Abar Bbar
A love to last my whole life through.
   A5                 C#5       D5      E5
I finally found the love of a lifetime.
   B5       C#5        D5
Forever in my heart, I finally found the
   E5            A5     C#5     D5
love of a lifetime.
    E5        A5      C#5     D5
Love of a lifetime.
   E5                   A5    C#5     D5
I finally found the love
E5       B5               C#5
 Oo!  Forever in my heart,
    D5                  E5
I finally found the love ........

of a lifetime. (begin OUTRO after "life-")


OUTRO (acoustic):

/ = slide up to

    A                C#m                   D2(add9)       E
E ----------0-----------------4---------|--------0----------------0-----
B --------2---2-----------------5-------|------3---3----------------0---
G ------2-------2----------4------4-----|----2-------2----------1-----1-
D ----2-----------2------6----------6---|--0-----------0------2---------2
A --0---------------/4------------------|-------------------2-----------
E --------------------------------------|-----------------0-------------

        A
E --|---0------||
B --|---2------||
G --|---2------||
D --|---2------||
A --|---0------||
E --|----------||


CHORD DIAGRAMS:
G5     3x0033
Bm     024432
Am7    x02010
Bm7    x24232
B11    xx4230
G#bar  466544
Abar   577655
Bbar   799877
A5     x022xx
B5     x244xx
C5     x355xx
C#5    x466xx
D5     x577xx
E5     x799xx





Comments


Popular Firehouse tabs & chords
Christmas With You Chords
I Live My Life For You Chords
Hanging By A Moment Tabs
Here For You 1 Tabs
I Live My Life For You Tabs
Overnight Sensation 2 Tabs
Overnight Sensation Intro Tabs
When I Look Into Your Eyes Tabs
I Live My Life For You Ukulele
I Need You Now Ukulele


Song lyrics



↑ Back to top | Tablatures and chords are parodies/interpretations of the original songs. You may use it for private study, scholarship, research or language learning purposes only
© 2014 AZChords.com Contact us | Privacy policy | DMCA | Add/correct tabs | Request tabs | Top 50 tabs