>
 >
Love Of A Lifetime 1

Love Of A Lifetime 1 Guitar Tabs

Firehouse - Love Of A Lifetime 1 chords, tabs, tablatures, lyrics

Guitar lessons | Add/correct | Request | Top 50 tabs Artists:  A B C D E F G H I J K L M N O P Q R S T U V W X Y Z 0-9

Love Of A Lifetime 1 Guitar Tabs – Firehouse

CD, Sheet music, Poster

Do you like Love Of A Lifetime 1? Share with your friends now
ChordsChords v2Chords v3Chords v4TabsTabs v2Tabs v3Tabs v4Ukulele


Much credit to Jeff A. Estefan...here's the lead parts plus a few fixes to his tabs.
TUNE DOWN HALF STEP
Enjoy and God bless :)

-|----------------3-----------------0--------------3----------------0---------|
-|--------------3---3-------------3---3----------5---5------------3---3-------|
-|------------0-------0---------2-------2------4-------4--------2-------2-----|
-|----------0-----------0-----0-----------0--------------2----------------0---|
-|------------------------------------------0---------------------------------|
-|--------3----------------2--------------------------------2-----------------|
   Intro/verse

--------0--------------2--------------0------------0-----2-----3-----2-------|
------1---1----------3---3----------1---1------------3-----3-----3-----3-----|
----2-------2------4-------4------0-------0------2-----2-----2-----2-----3---|
--------------2--------------4--------------2--0---------------------------0-|
--0-------------2--------------3---------------------------------------------|
-----------------------------------------------------------------------------|


-|-0----2----2----------0----2----2----------0----2----2----------0----2-----|
-|-1----3------3--------1----3------3--------1----3------3--------1----3-----|
-|-2----4--------4------0----2--------2------2----4--------4------0----2-----|
-|-2----4----------4----2----0----------0----2----4----------4----2----0-----|
-|-0----2---------------3--------------------0----2---------------3----------|
-|------2-----------------------------------------2--------------------------|
   Pre-chorus

-|--3---2---3---5----3---2---3---5----3---2---3---7----5---2---3---5---------|
-|--3---3---5---7----3---3---5---7----3---3---5---7----5---3---5---7---------|
-|--4---4---5---7----4---4---5---7----4---4---5---7----5---4---5---7---------|
-|--5---4---5---7----5---4---5---7----5---4---5---7----7---4---5---7---------|
-|--5---2---3---5----5---2---3---5----5---2---3---5----7---2---3---5---------|
-|--3---2---3---5----3---2---3---5----3---2---3---5----5---2---3---5---------|
   Chorus

-|---------------------------------------------------------------------------|
-|---------------------------------------------------------------------------|
-|-12---12/14--12--11----12--11-----------------------12/14--12--------------|
-|-------------------------------14----14h16p14--12--------------------------|
-|---------------------------------------------------------------------------|
-|---------------------------------------------------------------------------|
   Riff between chorus and verse. Rhythm: play first 4 chords of chorus

-|----------------------------------------------------------------------------|
-|----------------------------------------------------------------------------|
-|-------------12-12/-12-11-12-11----------------12/14---------------14b-14b--|
-|--------------------------------14-14h16h14-12---------------12-14----------|
-|----------------------------------------------------------------------------|
-|----------------------------------------------------------------------------|
   Solo

--------------------------------14b-17b14----------14****17****22****22b-----|
--------------------------15-17-----------17-15****--------------------------|
-------14b-14p12----12-------------------------------------------------------|
-12-14-----------14----14----------------------------------------------------|
-----------------------------------------------------------------------------|
-----------------------------------------------------------------------------|
                                  fast picking|    |      |     |

-|-------3-------2-------3----------5-------5-------2-------3-------5--------|
-|-------3-------3-------5----------7-------5-------3-------5-------7--------|
-|-------4-------4-------5----------7-------5-------4-------5-------7--------|
-|-------5-------4-------5----------7-------7-------4-------5-------7--------|
-|-------5-------2-------3----------5-------7-------2-------3-------5--------|
-|-------3-------2-------3----------5-------5-------2-------3-------5--------|
   Rhythm for solo

-|-5---4---5---7-----5---4---5---5--7--8---5---4---5---7-----7---4---5---7----|
-|-5---5---7---9-----5---5---7---5--7--8---5---5---7---9-----7---5---7---9----|
-|-6---6---7---9-----6---6---7---6--8--9---6---6---7---9-----7---6---7---9----|
-|-7---6---7---9-----7---6---7---7--9--10--7---6---7---9-----9---6---7---9----|
-|-7---4---5---7-----7---4---5---7--9--10--7---4---5---7-----9---4---5---7----|
-|-5---4---5---7-----5---4---5---5--7--8---5---4---5---7-----7---4---5---7----|
   Chorus

--5---4---5---7-----5---4---5---7-----5---4---5---7----7---4---5---7---------|
--5---5---7---9-----5---5---7---9-----5---5---7---9----7---5---7---9---------|
--6---6---7---9-----6---6---7---9-----6---6---7---9----7---6---7---9---------|
--7---6---7---9-----7---6---7---9-----7---6---7---9----9---6---7---9---------|
--7---4---5---7-----7---4---5---7-----7---4---5---7----9---4---5---7---------|
--5---4---5---7-----5---4---5---7-----5---4---5---7----7---4---5---7---------|


-|---------0---------------4--------------0---------------0----------0-------|
-|-------2---2-----------5---5----------3---3-----------0---0--------2-------|
-|-----2-------2-------6-------6------2-------2-------1-------1------2-------|
-|---2-----------2---------------6--0-----------0---2-----------2----2-------|
-|-0---------------4------------------------------2------------------0-------|
-|-------------------------------------------------------------------0-------|
   Outtro





Comments


Popular Firehouse tabs & chords
Christmas With You Chords
Love Of A Lifetime 1 Chords
When I Look Into Your Eyes 2 Chords
Here For You 5 Tabs
I Live My Life For You 3 Tabs
More Than Words Can Say Tabs
Rock On The Radio Tabs
When I Look Into Your Eyes 1 Tabs
I Live My Life For You Ukulele
Sleeping With You Ukulele


Song lyrics



↑ Back to top | Tablatures and chords are parodies/interpretations of the original songs. You may use it for private study, scholarship, research or language learning purposes only
© 2014 AZChords.com Contact us | Privacy policy | DMCA | Add/correct tabs | Request tabs | Top 50 tabs