» » »

Even After All Bass tabs (ver.2)

Artists:  A B C D E F G H I J K L M N O P Q R S T U V W X Y Z # 

Even After All Bass tabs (ver.2)

Finley Quaye
Rating:
0/5 (0 votes)

Hard to play? Try these video lessons and learn fast.
                -------------------------------------------------------------------------------
			     Even After All - Finley Quaye
-------------------------------------------------------------------------------


Tuning: Standard

Things to remember:

-Watch the timing. It is a little awkward as few notes land directly on the beat.
- The last note of each bar is carried over into the next.


G|---------------9--11--11--9--x--9-----------------9--11--11--9--x--9-------|
D|--------------------------------------7b-----------------------------------| x2
A|----7b-----------------------------------------0-let ring-------------(7b)-|
E|------------0-let-ring-----------------------------------------------------|




G|---------------9--11--11--9--x--9-----------------9--11--11--9--x--9-------|
D|--------------------------------------7b------------------------------(9b)-| x1
A|----7b-----------------------------------------0-let ring------------------|
E|------------0-let-ring-----------------------------------------------------|




G|---------------9--11--11--9--x--9-----------------9--11--11--9--x--9-------|
D|----9b--------------------------------11b----------------------------------| x1
A|-----------------------------------------------0-let ring-------------(7b)-|
E|------------0-let-ring-----------------------------------------------------|



| b bend
| /  slide up
| \  slide down
| h  hammer-on
| p  pull-off
| ~  vibrato
| +  harmonic
| x  Mute note
===============================================================================
            
Hard to play? Try these video lessons and learn fast. | Correct




comments powered by Disqus
↑ Back to top | Tablatures and chords are parodies/interpretations of the original songs. You may use it for private study, scholarship, research or language learning purposes only