» » »

Finley Quaye, Even After All Bass tabs (ver.1)

Artists:  A B C D E F G H I J K L M N O P Q R S T U V W X Y Z # 

Even After All Bass tabs (ver.1)

Finley Quaye Tabs
 Rating:
4.3/5 (6 votes)
Even After All lessons Tabs too difficult? Try these video lessons and learn fast
1
                Track:  Even After All
04.06.06

b = bend up - half a note

G|---------------------------------------------------|
D|---------14-16-16-14-x-14---------14-16-16-14-x-14-|
A|--------------------------12b12-0------------------|
E|-12b12-0-------------------------------------------| x3

G|---------------------------------------------------|
D|---------14-16-16-14-x-14---------14-16-16-14-x-14-|
A|-14b14--------------------16b16-0------------------|
E|-------0-------------------------------------------|

This is repeated throughout the tune.
            
Submit corrections

comments powered by Disqus
↑ Back to top | Finley Quaye Bass for Even After All. Lyrics for acoustic guitar and electric guitar. 1 Tablatures and chords are parodies/interpretations of the original songs. You may use it for private study, scholarship, research or language learning purposes only