» » »

Ricordi Tabs (ver.2)

Artists:  A B C D E F G H I J K L M N O P Q R S T U V W X Y Z # 

Ricordi Tabs (ver.2)

Finley
Rating:
0/5 (0 votes)

Hard to play? Try these video lessons and learn fast.
                intro:
|----------0-----|----------0-----|-----0-----0-----|---0-------0-----|
|----1---3---1---|----1---3---1---|---1---1-----1---|-3---1---3---1---|
|------0-------0-|------0-------0-|---------0-----0-|-------0-------0-|
|---2------------|---2------------|-3---------------|-----------------|
|-3--------------|-3--------------|-----------------|-----------------|
|----------------|----------------|-----------------|-----------------|

part 1:

|----------0-----|----------0-----|-----0-----0-----|---0-------0-----|
|----1---3---1---|----1---3---1---|---1---1-----1---|-3---1---3---1---|
|------0-------0-|------0-------0-|---------0-----0-|-------0-------0-|
|---2------------|---2------------|-3---------------|-----------------|
|-3--------------|-3--------------|-----------------|-----------------|
|----------------|----------------|-----------------|-----------------|x4

part 2:
 La m    La m    Fa     Fa         
|----|---------|----|---------|
|----|---------|----|---------|
|-7--|-7--7/3--|-3--|-3--3/7--|
|-7--|-7--7/3--|-3--|-3--3/7--|
|-5--|-5--5/3--|-1--|-1--1/5--|
Ma non svaniranno mai...

 La m   La m     Fa  Sol
|----|---------|----|----|
|----|---------|----|----|
|-7--|-7--7/3--|-3--|-5--|
|-7--|-7--7/3--|-3--|-5--|
|-5--|-5--5/3--|-1--|-3--|
Resteranno sempre i tuoi...


Rit:
 Do   La m  Fa   Do Sol
|----|----|----|-------|
|-5--|----|----|-5-----|
|-5--|-7--|-3--|-5---5-|
|-3--|-7--|-3--|-3---5-|
|----|-5--|-1--|-----3-|x2
Ricordi... di un'anno

During solo:
 La m  Fa  Do  Sol
|----|----|---|----|
|----|----|-5-|----|
|-7--|-3--|-5-|--5-|
|-7--|-3--|-3-|--5-|
|-5--|-1--|---|--3-|

 La m  Fa  Sol  Fa
|----|----|---|----|
|----|----|---|----|
|-7--|-3--|-5-|--3-|
|-7--|-3--|-5-|--3-|
|-5--|-1--|-3-|--1-|

By Seth
            
Hard to play? Try these video lessons and learn fast. | Correct




comments powered by Disqus
↑ Back to top | Tablatures and chords are parodies/interpretations of the original songs. You may use it for private study, scholarship, research or language learning purposes only