» » »

Questo Sono Io Tabs (ver.1)

Artists:  A B C D E F G H I J K L M N O P Q R S T U V W X Y Z # 

Questo Sono Io Tabs (ver.1)

Finley
Rating:
0/5 (0 votes)

Hard to play? Try these video lessons and learn fast.
                FINLEY - QUESTO SONO IO

INTRO:                             VERSO:

                                   [Vivo nel disordine..]
|------------|-------------------| -------------|
|------------|-------------------| -------------|
|----7-----5-|----7--11-12-----5-| ----7-----5--|
|-5--7--2--5-|-5--7---------2--5-| -5--7--2--5--|
|-5--5--2--3-|-5--5---------2--3-| -5--5--2--3--|
|-3--5--0----|-3--5---------0----| -3--5--0-----| x2

PRE RIT:                    RIT:

[Prendimi così..]           [Sono pazzo..]
|-------------------------| ------------|
|-------------------------| ------------|
|----5-----7-8-9--5-----5-| ----7-----5-|
|-2--5--5--7-8-9--5--5--5-| -5--7--2--5-|
|-2--3--5--5-6-7--3--5--3-| -5--5--2--3-|
|-0-----3------------3----| -3--5--0----| x4

PRE VERSO:             VERSO:          PRE RIT:

                       [Cazzo c’hai..] [Prendimi così..]
|-------------------|  ------------|   -------------------------|
|-------------------|  ------------|   -------------------------|
|----7--11-12-----5-|  ----7-----5-|   ----5-----7-8-9--5-----5-|
|-5--7---------2--5-|  -5--7--2--5-|   -2--5--5--7-8-9--5--5--5-|
|-5--5---------2--3-|  -5--5--2--3-|   -2--3--5--5-6-7--3--5--3-|
|-3--5---------0----|  -3--5--0----|x2 -0-----3------------3----|

RIT:               INTERLUDE:     RIT:             END:

[Sono pazzo..]    [Tante facce..] [Sono pazzo..]
|------------|      ------------| ------------|    |---|
|------------|      ------------| ------------|    |---|
|----7-----5-|      ----5-----7-| ----7-----5-|    |---|
|-5--7--2--5-|      -2--5--5--7-| -5--7--2--5-|    |-5-|
|-5--5--2--3-|      -2--3--5--5-| -5--5--2--3-|    |-5-|
|-3--5--0----| x4   -0-----3----| -3--5--0----| x4 |-3-|
            
Hard to play? Try these video lessons and learn fast. | Correct




comments powered by Disqus
↑ Back to top | Tablatures and chords are parodies/interpretations of the original songs. You may use it for private study, scholarship, research or language learning purposes only