» » »

Finley, Domani Tabs (ver.2)

Artists:  A B C D E F G H I J K L M N O P Q R S T U V W X Y Z # 

Domani Tabs (ver.2)

Finley Tabs
 Rating:
4/5 (4 votes)
Domani lessons Tabs too difficult? Try these video lessons and learn fast
1
                (Intro)
Album:Adrenalina
Years:2007

Tuning : Standard
_____________________
e MiC. 
B Si
G Sol
D Re 
A La 
E Mi 
_____________________

[Intro]
          
e|-0-----------------0-------------------0---------------------0------------------|
B|--2-2-3-2-----------2-2-3-2-------------2-2-3-2---------------2-2-3-2-----------|
G|----------2--4--------------2--4----------------2--4------------------7-6-------|
D|--------------------------------------------------------------------------------|
A|--------------------------------------------------------------------------------|
E|--------------------------------------------------------------------------------|

e|-0-----------------0-------------------0---------------------0------------------|
B|--2-2-3-2-----------2-2-3-2-------------2-2-3-2---------------2-2-3-2-----------|
G|----------2--4--------------2--4----------------2--4------------------7-6-------|
D|--------------------------------------------------------------------------------|
A|--------------------------------------------------------------------------------|
E|--------------------------------------------------------------------------------|
            
Submit corrections

comments powered by Disqus
↑ Back to top | Finley Tabs for Domani. Lyrics for acoustic guitar and electric guitar. 1 Tablatures and chords are parodies/interpretations of the original songs. You may use it for private study, scholarship, research or language learning purposes only