» » »

Katie W Tabs (ver.3)

Artists:  A B C D E F G H I J K L M N O P Q R S T U V W X Y Z # 

Katie W Tabs (ver.3)

Fenix Tx
Rating:
0/5 (0 votes)

Hard to play? Try these video lessons and learn fast.
                Band: Fenix Tx
Standard tuning

One of their best songs. I couldn't find any correct tabs on this song
so here it is:

Intro 
E-----------------------------------------|
B-----------------------------------------|
G-----------------------------------------|
D-----------33-3h4p3-33-1h3p1-333\444\666-|
A-----------44-------11-------333\444\666-|
E-----------------------------111\222\444-|

Pre-Verse
E---------------------------------------------|
B---------------------------------------------|
G---6-6------3-3------------------------------|
D---6-6------3-3------3-3-3-3-4-4-4-4/6-6-6---|
A---4-4------1-1------3-3-3-3-4-4-4-4/6-6-6---|
E-------//12-----//10-1-1-1-1-2-2-2-2/4-4-4---|

Verse1:  (- palm mute,* normal)   1st time        2nd time then just repeat both
E----------------------------------|-------------------------------------|
B----------------------------------|-------------------------------------|
G-6-6-6-6-3-3-3-3------------------|-6-6-6-6-3-3-3-3---------------------|
D-6-6-6-6-3-3-3-3-3-3-3-3-4-4-4-*3-|-6-6-6-6-3-3-3-3-3-3-3-3-4-4-4-*4-*3-|
A-4-4-4-4-1-1-1-1-3-3-3-3-4-4-4-*3-|-4-4-4-4-1-1-1-1-3-3-3-3-4-4-4-*4-*3-|
E-----------------1-1-1-1-2-2-2-*1-|-----------------1-1-1-1-2-2-2-*2-*1-| 
  -----------------------------      -----------------------------  


Repeat Pre Verse
then at the end do this:

Pre Verse Riff
E----------13-14-13-14p13------------------------------------|
B-14-13-14----------------14---------------------------------|
G------------------------------------------------------------|
D------------------------------------------------------------|
A------------------------------------------------------------|
E------------------------------------------------------------|

Verse2:  (- palm mute,* normal)   1st time        2nd time then just repeat both
E----------------------------------|-----------------------------------|
B----------------------------------|-----------------------------------|
G-6-6-6-6-3-3-3-3------------------|-6-6-6-6-3-3-3-3-------------------|
D-6-6-6-6-3-3-3-3-3-3-3-3-4-4-4-*3-|-6-6-6-6-3-3-3-3-3-3-3-3-4-4-4-4-3-|
A-4-4-4-4-1-1-1-1-3-3-3-3-4-4-4-*3-|-4-4-4-4-1-1-1-1-3-3-3-3-4-4-4-4-3-|
E-----------------1-1-1-1-2-2-2-*1-|-----------------1-1-1-1-2-2-2-2-1-| 
  -----------------------------      --------------

Chorus:

E---------------------------------------------|
B---------------------------------------------|
G---6-6------3-3------------------------------|
D---6-6------3-3------3-3-3-3-4-4-4-4/6-6-6---|
A---4-4------1-1------3-3-3-3-4-4-4-4/6-6-6---|
E-------//11-----//10-1-1-1-1-2-2-2-2/4-4-4---|

Pre Verse
E----------------------------------------------|
B----------------------------------------------|
G---6-666---333-3------------------------------|
D---6-666---333-3------3-3-3-3-4-4-4-4/6-6-6---|
A---4-444---111-1------3-3-3-3-4-4-4-4/6-6-6---|
E----------------------1-1-1-1-2-2-2-2/4-4-4---|

Repeat Verse, Chorus then solo:

Solo
E-13-14-13-14-13-14-13----------14-13-14-13-14-13--------------------13-|
B----------------------14-13-14-------------------14-13-14--14-13-14----|
G-----------------------------------------------------------------------|
D-----------------------------------------------------------------------|
A-----------------------------------------------------------------------|
E-----------------------------------------------------------------------|

Solo Cont.
E-14-16-13-------------------------13-14-16-18*-16*-14p13---------------|
B----------14-13-14-13----14-13-14----------------------14--------------|
G----------------------13-----------------------------------------------|
D-----------------------------------------------------------------------|
A-----------------------------------------------------------------------|
E-----------------------------------------------------------------------|

Repeat Chorus a few times then pre verse a few times then end on

End on:
E---------------|
B---------------|
G---------------|
D--3-3-3-3-x-4--|
A--3-3-3-3-x-4--|
E--1-1-1-1-x-2--|
            
Hard to play? Try these video lessons and learn fast. | Correct




comments powered by Disqus
↑ Back to top | Tablatures and chords are parodies/interpretations of the original songs. You may use it for private study, scholarship, research or language learning purposes only