>
 >
Katie W.

Katie W. Guitar Tabs

Fenix Tx - Katie W. chords, tabs, tablatures, lyrics

Guitar lessons | Add/correct | Request | Top 50 tabs Artists:  A B C D E F G H I J K L M N O P Q R S T U V W X Y Z 0-9

Katie W. Guitar Tabs – Fenix Tx

CD, Sheet music, Poster

Do you like Katie W.? Share with your friends now
TabsTabs v2Tabs v3
Fenix TX- Katie W.
standard tuning (E B G D A E)
Intro (guitar 1)
E------------------------------------------------------
B------------------------------------------------------
G------------------------------------------------------  x2
D--3-3-3h4p3-3\1-3-3-3-3-1h3-1----3-3-3-x-4-4-4/6-66---
A--4-4-----------1-1-----------h3-3-3-3-x-4-4-4/6-66---
E---------------------------------1-1-1-x-2-2-2/4-44---

Intro part 2 (guitar 1)
E--------------------------------------------------
B--------------------------------------------------
G----------6-6---------3-3---------------------------------
D--x-x-x-x-6-6-x-x-x-x-3-3-x-x-x-x-3-3-3-3-4-4-4-4/6-6-6---
A--x-x-x-x-4-4-x-x-x-x-1-1-x-x-x-x-3-3-3-3-4-4-4-4/6-6-6---
E--x-x-x-x-----x-x-x-x-----x-x-x-x-1-1-1-1-2-2-2-2/4-4-4---

Intro part 2 (guitar 2)
E----------------------------------------------------
B----------------------------------------------------
G--x-x-x-x-6-6------3-3------------------------------
D--x-x-x-x-6-6------3-3------3-3-3-3-4-4-4-4/6-6-6---
A--x-x-x-x-4-4------1-1------3-3-3-3-4-4-4-4/6-6-6---
E--------------//11-----//10-1-1-1-1-2-2-2-2/4-4-4---

Verse (palm muted except for *)     2nd time
E----------------------------------|-------------------------------------
B----------------------------------|-------------------------------------
G-6-6-6-6-3-3-3-3------------------|-6-6-6-6-3-3-3-3---------------------
D-6-6-6-6-3-3-3-3-3-3-3-3-4-4-4-*3-|-6-6-6-6-3-3-3-3-3-3-3-3-4-4-4-*4-*3-
A-4-4-4-4-1-1-1-1-3-3-3-3-4-4-4-*3-|-4-4-4-4-1-1-1-1-3-3-3-3-4-4-4-*4-*3-
E-----------------1-1-1-1-2-2-2-*1-|-----------------1-1-1-1-2-2-2-*2-*1-
do i really have to explain the 3th and 4th part of the verse?

play intro part 2 again but this time with a solo at the end: solo 1
E---------------------------------------------------------------------------
B---------------------------------------------------------------------------
G--10p8-10-11-11p10---------------------------------------------------------
D-------------------11(let ring shortly and quickly slide back to 1st fret)-
A---------------------------------------------------------------------------
E---------------------------------------------------------------------------

play verse again

chorus- the same as intro part 2

verse again

chorus


solo 2
E---------------------------------------------------------------------
B---------------------------------------------------------------------
G--10--11-10--11-10--11-10--11p10------11-10--11-10--11-10--11p10-----
D----11--------------------------11--11--------------------------11---
A---------------------------------------------------------------------
E---------------------------------------------------------------------

E----------------------------------------------------------------------
B----------------------------------------------------------------------
G----10---10-11-13-10-8-6-5-6--------10---10-11-13-15~--13~--11p10-----
D--11--11---------------------6----11--11-------------------------11---
A----------------------------------------------------------------------
E----------------------------------------------------------------------

chorus

outro           play solo 1 second time
E---------------------------------------------
B---------------------------------------------
G---------------------------------------------
D---------------------------------------------
A--4---4-3---1---1----------------------------
E----4---------1---4---1-1-1-1-2-2-2/4-4-4----

...then...
E--------------------------
B--------------------------
G--------------------------
D--3-3-3-3-x-4(let ring)---
A--3-3-3-3-x-4(let ring)---
E--1-1-1-1-x-2(let ring)---





Comments


Popular Fenix Tx tabs & chords
Rooster Song Chords
Apple Pie Cowboy Toothpaste Tabs
Joly Green Dumb Ass Tabs
Minimum Wage 1 Tabs
Something Bad Is Gonna Happen Tabs
Surf Tabs
Surf Song 4 Tabs
Tearjerker 1 Tabs
Threesome Tabs
Threesome 1 Tabs


Song lyrics



↑ Back to top | Tablatures and chords are parodies/interpretations of the original songs. You may use it for private study, scholarship, research or language learning purposes only
© 2014 AZChords.com Contact us | Privacy policy | DMCA | Add/correct tabs | Request tabs | Top 50 tabs