>
 >
A Song For Everyone

A Song For Everyone Guitar Tabs

Fenix Tx - A Song For Everyone chords, tabs, tablatures, lyrics

Guitar lessons | Add/correct | Request | Top 50 tabs Artists:  A B C D E F G H I J K L M N O P Q R S T U V W X Y Z 0-9

A Song For Everyone Guitar Tabs – Fenix Tx

CD, Sheet music, Poster

Do you like A Song For Everyone? Share with your friends now
Bass TabsBass Tabs v2TabsTabs v2
-------------------------------------------------------------------------------
-------------------------------------------------------------------------------

Alright, AWESOME SONG but no tab for it so this is what i make out of it.  I think they 
play it half step down drop D, BUT! it can be played in standard drop D as i tabbed it below....

Tuning: Drop D

Intro Part 1.                                                            x2

Guitar 1
e|------------------------------------------------------------------------|
B|------------------------------------------------------------------------|
G|-8-8-77-7---8-8-77-7---5-5-44-4---3-3-22-2------------------------------|
D|-8-8-88-8---8-8-88-8---5-5-55-5---3-3-33-3------------------------------|
A|-6-6-66-6---6-6-66-6---3-3-33-3---1-1-11-1------------------------------|
D|------------------------------------------------------------------------|
Guitar 2
e|------------------------------------------------------------------------|
B|------------------------------------------------------------------------|
G|-8~~-------------------5~~--------3~~-----------------------------------|
D|-8~~-------------------5~~--------3~~-----------------------------------|
A|-6~~-------------------3~~--------1~~-----------------------------------|
D|------------------------------------------------------------------------|

___________________________________________________________________________

Intro Part 2.                                                            x2

Guitar 1
e|------------------------------------------------------------------------|
B|------------------------------------------------------------------------|
G|-8-8-77-7---8-8-77-7---5-5-44-4---3-3-22-2------------------------------|
D|-8-8-88-8---8-8-88-8---5-5-55-5---3-3-33-3------------------------------|
A|-6-6-66-6---6-6-66-6---3-3-33-3---1-1-11-1------------------------------|
D|------------------------------------------------------------------------|
Guitar 2
e|------------------------------------------------------------------------|
B|------------------------------------------------------------------------|
G|-8----------8----------5----------3-------------------------------------|
D|-8-x8-------8-x8-------5-x8-------3-x8----------------------------------|
A|-6----------6----------3----------1-------------------------------------|
D|------------------------------------------------------------------------|

___________________________________________________________________________

Intro Part 3.                                                            x2

                                            [ ]= Keep the same 10,12 and 13 fret pattern 
the intro
Guitar 1                                       Then you will hear the 15 fret. listen 
it in the song
e|-----------------------------------------------------------------------------------------------------|
B|-----------------------------------------------------------------------------------------------------|
G|---8-8-10-10-10-12-12-12--12-12-12-10-10-10-12-12--12-12-12-10-10-10-13-13-[15-15-15-15-15-15-15-15]-|
D|-----------------------------------------------------------------------------------------------------|
A|-----------------------------------------------------------------------------------------------------|
D|-----------------------------------------------------------------------------------------------------|
    .  .  .  .  .  .  .  .   .  .  .  .  .  .  .  .   .  .  .  .  .(listen to know when 
stop muting)
Guitar 2
e|------------------------------------------------------------------------|
B|------------------------------------------------------------------------|
G|-8----------------------------------------------------------------------|
D|-8-x8-------8----------6----------8-------------------------------------|
A|-6----------8-x8-------6-x8-------8-x8----------------------------------|
D|------------8----------6----------8-------------------------------------|
pm .          .          .          .
___________________________________________________________________________

Verse Part 1.                                                            x2

Guitar 2. (only)
e|------------------------------------------------------------------------|
B|------------------------------------------------------------------------|
G|-8----------------------------------------------------------------------|
D|-8-x8-------6---------10----------8-------------------------------------|
A|-6----------6-x8------10-x8-------8-x8----------------------------------|
D|------------6---------10----------8-------------------------------------|

(Well I know that it's late, but the words wouldn't wait...)
___________________________________________________________________________
Verse Part 2.                                                            x2

Guitar 1
e|------------------------------------------------------------------------|
B|------------------------------------------------------------------------|
G|----8---8-------8---8--------8---8--------8---8-------------------------|
D|-----8---8-------8---8--------8---8--------8---8------------------------|
A|-6----------------------------------------------------------------------|
D|-------------6-----------10------------8--------------------------------|
Guitar 2.
e|------------------------------------------------------------------------|
B|------------------------------------------------------------------------|
G|-8----------------------------------------------------------------------|
D|-8-x8-------6---------10----------8-------------------------------------|
A|-6----------6-x8------10-x8-------8-x8----------------------------------|
D|------------6---------10----------8-------------------------------------|

pm .          .         .           .

(If I'm wrong let me know, Do you think I should go...)
___________________________________________________________________________

Chorus.

Both Guitars
e|----------------------------------------------------------------------|
B|----------------------------------------------------------------------|
G|-88888888---5~---3~-----------------88888888--5~---3~-----------------|
D|-88888888---5~---3~---1-1xx--1-1xx--88888888--5~---3~---1-1xx---1-1xx-|
A|-66666666---3~---1~---1-1xx--1-1xx--66666666--3~---1~---1-1xx---1-1xx-|
D|----------------------1-1xx--1-1xx----------------------1-1xx---1-1xx-|

(All that I have twenty six dollars and the keys to a Cadilac...)

e|---------------------------------------------|
B|---------------------------------------------|
G|---------------------------------------------|
D|-6---------8---------10--------6---------8~--|
A|-6-x8------8-x8------10-x16----6-x8------8~--|
D|-6---------8---------10--------6---------8~--|

(All that I want and all that I need...)
___________________________________________________________________________

Bridge Part 1.

Guitar 2.
e|--------------------------------------------------------------------|
B|--------------------------------------------------------------------|
G|-8~----------8~--------8~-------(listen for timing)-----------------|
D|-8~----------8~--------8~-------------------------------------------|
A|-6~----------6~--------6~-------------------------------------------|
D|--------------------------------------------------------------------|
                              ....(listen to know when to stop muting)
______________________________________________________________________

Bridge Part 2. (the build up Part)                                   x2

Both Guitars.                               [Gradually get louder...]
e|--------------------------------------------------------------------|
B|--------------------------------------------------------------------|
G|-8888---10101010---8888---12121212----------------------------------|
D|-8888---10101010---8888---12121212---10-----------------8-----------|
A|-6666----8-8-8-8---6666---10101010---10-x8--------------8-x8--------|
D|-------------------------------------10-----------------8-----------|
PM ....    . . . .   ....    . . . .    . . . . . . . .   ........
______________________________________________________________________

Outro.                                                              x4

Both Guitars.
e|--------------------------------------------------------------------|
B|--------------------------------------------------------------------|
G|-8888---10101010---8888---12121212----------------------------------|
D|-8888---10101010---8888---12121212---10-----------------8-----------|
A|-6666----8-8-8-8---6666---10101010---10-x8--------------8-x8--------|
D|-------------------------------------10-----------------8-----------|

(All I have all, I know, I changed the station and our song is on the radio...)
_____________________________________________________________________________

End.                                                     x2                x1

Both Guitars.
e|------------------------------------------------| |----------------|
B|------------------------------------------------| |----------------|
G|------------------------------------------------| |-8~-8~-8~-8~-8~-|
D|-10------------8----------10-----------8--------| |-8~-8~-8~-8~-8~-|
A|-10-x8---------8-x8-------10-x8--------8-x8-----| |-6~-6~-6~-6~-6~-|
D|-10------------8----------10-----------8--------| |----------------|

(Drive all night go anywhere you wanna go...)

=======
Order:
=======

Intro Part 1
Intro Part 2
Intro Part 3
Verse Part 1
Verse Part 2
Chorus
Intro Part 3
Verse Part 1
Verse Part 2
Chorus
Bridge Part 1
Bridge Part 2
Outro
End

| ~  Let Ring
| x  Mute note
===============================================================================





Comments


Popular Fenix Tx tabs & chords
Big Clock Bass Tabs
G.B.O.H Bass Tabs
Philosophy Bass Tabs
Surf Song 1 Bass Tabs
Abba Zabba Tabs
Ben 1 Tabs
Flight 6 Tabs
Flight 60 Tabs
Tearjerker 1 Tabs
Threesome Ukulele


Song lyrics



↑ Back to top | Tablatures and chords are parodies/interpretations of the original songs. You may use it for private study, scholarship, research or language learning purposes only
© 2014 AZChords.com Contact us | Privacy policy | DMCA | Add/correct tabs | Request tabs | Top 50 tabs