>
 >
A Song For Everyone 1

A Song For Everyone 1 Guitar Tabs

Fenix Tx - A Song For Everyone 1 chords, tabs, tablatures, lyrics

Guitar lessons | Add/correct | Request | Top 50 tabs Artists:  A B C D E F G H I J K L M N O P Q R S T U V W X Y Z 0-9

A Song For Everyone 1 Guitar Tabs – Fenix Tx

CD, Sheet music, Poster

Do you like A Song For Everyone 1? Share with your friends now
Bass TabsBass Tabs v2TabsTabs v2
Drop-D Tuning (D A D G B E)


Intro
|-----------------------------------------------------------------------------------
|------------------------------------------3-----3----------1-----1-----------------|--8-8-8--7--7-7----8-8-8--7--7-7----5--5-----5-------3--3-----3--------------------|--8-8-8--8--8-8----8-8-8--8--8-8----5--5-------------3--3--------------------------|--6-6-6--6--6-6----6-6-6--6--6-6----3--3-------------1--1--------------------------|-----------------------------------------------------------------------------------

2nd Part of Intro
Gtr. 1
|-----------------------------------------------------------------------------------|-----------------------------------------------------------------------------------|--8-8-8-7--7h8p7------8-8-8-7--7h8p7----8-8-8-7--7h8p7-----------------------------|--8-8-8-8--8----------8-8-8-8--8--------8-8-8-8--8----------8--8-8--8-8-8----------|------------------------------------------------------------8--8-8--8-8-8----------|-----------------------------------------------------------------------------------

Gtr. 2
|-----------------------------------------------------------------------------------
|-----------------------------------------------------------------------------------|--8--8-8--8-8-8----8--8-8--8-8-8----5--5-5--5-5-5----3--3-3--3-3-3-----------------|--8--8-8--8-8-8----8--8-8--8-8-8----5--5-5--5-5-5----3--3-3--3-3-3-----------------|--6--6-6--6-6-6----6--6-6--6-6-6----3--3-3--3-3-3----1--1-1--1-1-1-----------------|-----------------------------------------------------------------------------------

Pre-Verse
|-----------------------------------------------------------------------------------
|-----------------------------------------------------------------------------------
|-----------10-10-10-12-12----12-12-12-10-10-10-12-12-12----12-12-12-10-10-10-12-12-|--13-13-13-------------------------------------------------------------------------
|-----------------------------------------------------------------------------------
|-----------------------------------------------------------------------------------
pm..................................................................................

|---------------------------
|---------------------------
|--10-10-12-10--10-12-10----
|---------------------------
|---------------------------
|---------------------------
pm........................

|-----------------------------------------------------------------------------------
|-----------------------------------------------------------------------------------
|--12-12-12-10-10-10-12-12----12-12-12-10-10-10-12-12-12----12-12-12-10-10-10-12-12-|-----------------------------------------------------------------------------------
|-----------------------------------------------------------------------------------
|-----------------------------------------------------------------------------------

|-----------------------------                                                     |-----------------------------
|--13-13-13-13-13-13-13-13----                                                     |-----------------------------
|-----------------------------
|-----------------------------


Verse
|-----------------------------------------------------------------------------------
|-----------------------------------------------------------------------------------|------------------------------------5--5-5--5-5-5----3--3-3--3-3-3-----------------|--1--1-1--1-1-1----6--6-6--6-6-6----5--5-5--5-5-5----3--3-3--3-3-3-----------------|--1--1-1--1-1-1----6--6-6--6-6-6----3--3-3--3-3-3----1--1-1--1-1-1-----------------|--1--1-1--1-1-1----6--6-6--6-6-6---------------------------------------------------

2nd Part of Verse
Gtr. 1
|-----------------------------------------------------------------------------------
|-----------------------------------------------------------------------------------
|------------------------------------------------5~---------------------------------
|----------8~-------------------------------------------------------3~--------------
|------6----------------------6~-------------3------------------1-------------------
|------------------------6----------------------------------------------------------


Gtr. 2
|-----------------------------------------------------------------------------------|-----------------------------------------------------------------------------------|----------------------------------------5-5-5-5-5-5-5-5----3-3-3-3-3-3-3-3---------|--1-1-1-1-1-1-1-1----6-6-6-6-6-6-6-6----5-5-5-5-5-5-5-5----3-3-3-3-3-3-3-3---------|--1-1-1-1-1-1-1-1----6-6-6-6-6-6-6-6----3-3-3-3-3-3-3-3----1-1-1-1-1-1-1-1---------|--1-1-1-1-1-1-1-1----6-6-6-6-6-6-6-6-----------------------------------------------
pm..........................................................................




Chorus
|----------------------------------------------------------------------x-x-x-x------|----------------------------------------------------------------------x-x-x-x------|----------------------------------------------------------------------x-x-x-x------|--6--6-6---5---3----1-1----1-1--------6--6-6---5---3----1-1----1-1----x-x-x-x------|--6--6-6---5---3----1-1----1-1--------6--6-6---5---3----1-1----1-1----x-x-x-x------|--6--6-6---5---3----1-1----1-1--------6--6-6---5---3----1-1----1-1----x-x-x-x------


2nd Part of chorus
|-----------------------------------------------------------------------------------
|-----------------------------------------------------------------------------------
|-----------------------------------------------------------------------------------
|--6--6-6--6-6-6----8--8-8--8-8-8----10--10-10--10-10-10----10--10-10--10-10-10-----
|--6--6-6--6-6-6----8--8-8--8-8-8----10--10-10--10-10-10----10--10-10--10-10-10-----
|--6--6-6--6-6-6----8--8-8--8-8-8----10--10-10--10-10-10----10--10-10--10-10-10-----

|------------------------
|------------------------
|------------------------
|--6--6-6--6-6-6---8~----
|--6--6-6--6-6-6---8~----
|--6--6-6--6-6-6---8~----


Middle
|-------------------------------------------------------------------xx-xx-xx-xx-----
|-------------------------------------------------------------------xx-xx-xx-xx-----|----------------8~----------------8~-------------------------------xx-xx-xx-xx-----|----------------8~----------------8~-------------------------------xx-xx-xx-xx-----|----------------6~----------------6~-------------------------------xx-xx-xx-xx-----|-------------------------------------------------------------------xx-xx-xx-xx-----                                                                                                                                

Ending
|-----------------------------------------------------------------------------------|-----------------------------------------------------------------------------------|----------------------------------------5--5-5--5-5-5----3--3-3--3-3-3-------------|--1-1-1-1--3-3-3-3--1-1-1-1--5-5-5-5----5--5-5--5-5-5----3--3-3--3-3-3-------------|--1-1-1-1--3-3-3-3--1-1-1-1--5-5-5-5----3--3-3--3-3-3----1--1-1--1-1-1-------------|--1-1-1-1--3-3-3-3--1-1-1-1--5-5-5-5-----------------------------------------------


Outro
|-----------------------------------------------------------------------------------
|-----------------------------------------------------------------------------------|--5-5-5-5-5-5-5-5--3-3-3-3-3-3-3-3--5-5-5-5-5-5-5-5--3-3-3-3-3-3-3-3---------------|--5-5-5-5-5-5-5-5--3-3-3-3-3-3-3-3--5-5-5-5-5-5-5-5--3-3-3-3-3-3-3-3---------------|--3-3-3-3-3-3-3-3--1-1-1-1-1-1-1-1--3-3-3-3-3-3-3-3--1-1-1-1-1-1-1-1---------------|-----------------------------------------------------------------------------------

|--------------------------------------
|--------------------------------------                                             |--5-5-5-5-5-5-5-5--3-3-3-3-3-3-3-3----                                             |--5-5-5-5-5-5-5-5--3-3-3-3-3-3-3-3----                                             |--3-3-3-3-3-3-3-3--1-1-1-1-1-1-1-1----                                             |--------------------------------------


|-----------------------------------------------------------------------------------|-----------------------------------------------------------------------------------|-----------------------------------------------------------------------------------|--1~----1~----1~----1~----1~-------------------------------------------------------|--1~----1~----1~----1~----1~-------------------------------------------------------|--1~----1~----1~----1~----1~-------------------------------------------------------


Order:
Intro x 2
2nd Intro x 2
Pre-Verse x 1
Verse x 2
2nd Verse x 2
Chorus x 1
2nd Chorus x 1
Pre-Verse x 1
Verse x 2
2nd Verse x2 
Chorus x 1
2nd Chorus x 1
Middle x 1
Ending x 4
Outro x 1





Comments


Popular Fenix Tx tabs & chords
City Of The Dead Bass Tabs
El Borracho 1 Bass Tabs
No Lie Bass Tabs
Philosophy Bass Tabs
Phoebe Cates Chords
Tearjerker Chords
All My Fault 2 Tabs
Ben Tabs
Flight 601solo Perfect Tabs
Katie W (Intro) Tabs


Song lyrics



↑ Back to top | Tablatures and chords are parodies/interpretations of the original songs. You may use it for private study, scholarship, research or language learning purposes only
© 2014 AZChords.com Contact us | Privacy policy | DMCA | Add/correct tabs | Request tabs | Top 50 tabs