» » »

Feist, Mushaboom Chords (ver.2)

Artists:  A B C D E F G H I J K L M N O P Q R S T U V W X Y Z # 

Mushaboom Chords (ver.2)

Feist Tabs
 Rating:
4/5 (36 votes)
Mushaboom lessons Tabs too difficult? Try these video lessons and learn fast
1
                

         E A D G B E

D*     --x-x-0-x-x-x--|
A*     --x-0-x-x-x-x--|
G      --3-2-0-0-3-0--|
A7sus4 --x-0-2-0-3-0--|
Em7    --0-2-2-0-3-0--|


 [ Capo 1st Fret ]


 Intro:

E ---------------------0--|
B -------0-(3b)------0-3--|
G ---------------------2--|
D ---0-4---------0-4------|
A -5-----------5----------|
E ------------------------|


 Verse 1: (0:05)

 D*	 A*	 D*	       A*
Helping the kids out of their coats
     D*	      A*     D*	    A*	  G	    D* A* D* A*
But wait the babies haven't been born   oh-oh-oh
D*	      A*   D*	       A*
Unpacking the bags and setting up 
     D	      A	    D	 A	G	  D* A* D* A*
And planting lilacs and buttercups   oh-oh-oh 


 Bridge 1: (0:26)

Em7
But in the meantime I've got it hard
			A7Sus4	   D* A* D* A*
Second floor living without a yard 
Em7
It may be years until the day 
			 A7Sus4	    D* A* D* A*
My dreams will match up with my pay 


 Chorus 1: (0:42)

Em7           G
Oh-oh-oh old dirt road  (Mushaboom Mushaboom)
 Em7        G
Knee-ee-ee deep snow  (Mushaboom Mushaboom)
 Em7              G	     
Watching the fire as we grow  (Mushaboom Mushaboom)
Em7      G
Oh-oh-oh old

E --------------|
B -0-2-3-5-5^7--|
G --------------|
D --------------|
A --------------|
E --------------|

   D* A*   D* A*   D* A*  D* A*   G        -  -
E ----------------------------------------------|
B -------------------------------------------7b-|
G -------------------------------7-4---4-2------|
D -2h4-4---2---4----2h4-4--2-0------------------| (x2)
A ----------------------------------------------|
E ----------------------------------------------|


 Verse 2: (1:23)

D*	 A*    D*       A*
I got a man to stick it out 
     D*	    A*        D*      A*  G	  D* A* D* A*
And make a home from a rented house   oh-oh-oh
	   D*          A*     D*     A*
And we'll collect the moments one by one 
    D*          A*      D*       A* G	    D* A* D* A*
I guess that's how the future's done   oh-oh-oh


 Bridge 2: (1:45)

Em7
How many acres how much light 
			A7Sus4	     D* A* D* A*
Tucked in the woods and out of sight 
Em7
Talk to the neighbours and tip my cap 
		  A7Sus4	   D* A* D* D* D* D* 
On a little road barely on the map 


 Chorus 2: (2:01)

Em7           G
Oh-oh-oh old dirt road  (Mushaboom Mushaboom)
 Em7        G
Knee-ee-ee deep snow  (Mushaboom Mushaboom)
 Em7              G	     
Watching the fire as we grow  (Mushaboom Mushaboom)
Em7      G
Oh-oh-oh old  (Mushaboom Mushaboom)
Em7           G
Oh-oh-oh old dirt road
Em7        G  
Ra-ah-ah rambling rose  (Mushaboom Mushaboom)
 Em7              G	     
Watching the fire as we grow  (Mushaboom Mushaboom)
Em7       G
we-eh-eh well I'm sold

   G	G    -
E --------------|
B -0-2-3-5-5^7--|
G --------------|
D --------------|
A --------------|
E --------------|
      oh-ooooooh

E --2--2-------2-|        E --2--2-------2-0---|
B -3--3--3---3---|        B -3--3--3---3-----3-|
G ---------2-----| (x11)  G ---------2---------|
D ---------------|        D -------------------|
A ---------------|        A -------------------|
E ---------------|        E -------------------|


E ----------------------|
B ----------------------|
G ----------------------|
D -0-2-4-0h2-4--0-2-0-0-| [ Repeat this to fade ]
A ----------------------|
E ----------------------|
            
Submit corrections

comments powered by Disqus
↑ Back to top | Feist Chords for Mushaboom. Lyrics for acoustic guitar and electric guitar. 1 Tablatures and chords are parodies/interpretations of the original songs. You may use it for private study, scholarship, research or language learning purposes only