» » »

Feist, Mushaboom Tabs (ver.1)

Artists:  A B C D E F G H I J K L M N O P Q R S T U V W X Y Z # 

Mushaboom Tabs (ver.1)

Feist Tabs
 Rating:
4.4/5 (7 votes)
Mushaboom lessons Tabs too difficult? Try these video lessons and learn fast
                Album:Let It Die


 [ Capo 1st Fret ]

0:07 - 0:27
E ---------------------3--3--3--------|
B ---------------------0--0--0--------|
G ---------------------0--0--0--------| x2
D --0---0---0---0------0--0--0--0--0--|
A ----0---0---0---0----2--2--2---0--0-|
E ---------------------3--3--3--------|
  |     Riff 1       |         |Rif 2|
  |__________________|         |_____|

0:28 - 0:43
Em7
But in the meantime I've got it hard
			A7sus4	   (Riff 2)
Second floor living without a yard
Em7
It may be years until the day
			 A7sus4	    (Riff 2)
My dreams will match up with my pay

0:44 - 1:02

Em7	A7sus4	G
Old dirt road
Em7	A7sus4	G
Knee deep snow
Em7	A7sus4	G
Watching the fire as we grow
Em7	A7sus4	G

*solo not tabbed*

1:25 - 1:46

E ---------------------3--3--3--------|
B ---------------------0--0--0--------|
G ---------------------0--0--0--------| x2
D --0---0---0---0------0--0--0--0--0--|
A ----0---0---0---0----2--2--2---0--0-|
E ---------------------3--3--3--------|
  |     Riff 1       |         |Rif 2|
  |__________________|         |_____|

1:46 - 2:02
Em7
How many acres how much light
			A7sus4	     (riff 2)
Tucked in the woods and out of sight
Em7
Talk to the neighbours and tip my cap                 D -0---0-0-0-0-|
          A7sus4       (riff 3)---------> A ---0---------------------|
On a little road barely on the map

2:03 - 2:36
Em7	A7sus4	G
Old dirt road
Em7	A7sus4	G
Knee deep snow
Em7	A7sus4	G
Watching the fire as we grow
Em7	A7sus4	G
Oh-oh-oh old dirt road
Em7     A7sus4  G
rambling rose
Em7     A7sus4  G
Watching the fire as we grow
Em7     A7sus4  G
well I'm sold

*outro not tabbed*


im sure other tabs will have teh solo and outro but
i think this sounds right
            
Submit corrections

comments powered by Disqus
↑ Back to top | Feist Tabs for Mushaboom. Lyrics for acoustic guitar and electric guitar. Tablatures and chords are parodies/interpretations of the original songs. You may use it for private study, scholarship, research or language learning purposes only