» » »

Feist, I Feel It All Tabs (ver.2)

Artists:  A B C D E F G H I J K L M N O P Q R S T U V W X Y Z # 

I Feel It All Tabs (ver.2)

Feist Tabs
Rating:
5/5 (1 vote)
I Feel It All lessons Tabs too difficult? Try these video lessons and learn fast
                -------------------------------------------------------------------------------
                             I Feel It All - Feist
-------------------------------------------------------------------------------

Tuning: Drop D

This is all I could basically get out of the song.
Enjoy!

Main "power chords"/ chords played throughout song
e|--------------------------------|
B|--------------------------------|
G|--------------------------------|
D|----0-000---5-555-5-5-55/9-9-999|
A|----0-000---5-555-5-5-55/9-9-999|
D|--0-0-000-5-5-555-5-5-55/9-9-999|

Keyboard at beginning
e|--5~--5~--7~---5~--5~-----------|
B|----7------------7-----3~-------|
G|--------------------------------|
D|--------------------------------|
A|--------------------------------|
D|--------------------------------|

| /  slide up
| \  slide down
| h  hammer-on
| p  pull-off
| ~  vibrato
| +  harmonic
| x  Mute note
===============================================================================
            
Submit corrections

comments powered by Disqus
↑ Back to top | Feist Tabs for I Feel It All. Lyrics for acoustic guitar and electric guitar. Tablatures and chords are parodies/interpretations of the original songs. You may use it for private study, scholarship, research or language learning purposes only