» » »

Feist, I Feel It All Tabs (ver.1)

Artists:  A B C D E F G H I J K L M N O P Q R S T U V W X Y Z # 

I Feel It All Tabs (ver.1)

Feist Tabs
 Rating:
4.4/5 (7 votes)
I Feel It All lessons Tabs too difficult? Try these video lessons and learn fast
1
                -------------------------------------------------------------------------------
-------------------------------------------------------------------------------

Tuning: Standard

Pretty chill song by Feist. Saw some pretty complicated tabs on it, when it's really an 
song to play. So, here it is!

Intro/Verse/Chorus/Outro: Acoustic.
e|(5)5--5-5-5(3)3--3-3-3(3)3--3-3-3(2)2--2-2-2-|
B|(7)7--7-7-7(3)3--3-3-3(3)3--3-3-3(3)3--3-3-3-|
G|-7-7--7-7-7(4)4--4-4-4(4)4--4-4-4-4-4--4-4-4-|
D|-7-7--7-7-7-5-5--5-5-5-5-5--5-5-5-4-4--4-4-4-|
A|-5-5--5-5-5-5-5--5-5-5-5-5--5-5-5-2-2--2-2-2-|
E|------------3-3--3-3-3-3-3--3-3-3------------|

Or you can play that in power chords instead of chords.. it's a bit easier, and in some 
sounds a bit more similar too!

Fill: Guitar subbin' for keyboard.
e|-17~---17~----19~-|-17~----17~-----|
B|----19~-----------|----19~-----15~-|
G|------------------|----------------|
D|------------------|----------------|
A|------------------|----------------|
E|------------------|----------------|


- Cheers, Frazer.

| /  slide up
| \  slide down
| h  hammer-on
| p  pull-off
| ~  vibrato
| +  harmonic
| x  Mute note
===============================================================================
            
Submit corrections

comments powered by Disqus
↑ Back to top | Feist Tabs for I Feel It All. Lyrics for acoustic guitar and electric guitar. 1 Tablatures and chords are parodies/interpretations of the original songs. You may use it for private study, scholarship, research or language learning purposes only