» » »

Burn It All Tabs (ver.1)

Artists:  A B C D E F G H I J K L M N O P Q R S T U V W X Y Z # 

Burn It All Tabs (ver.1)

Fei Comodo
Rating:
0/5 (0 votes)

Hard to play? Try these video lessons and learn fast.
                (Intro)
Fei Comodo 
Burn It All

Not the best but all I could think of for the intro…

Guitar 1

E|--------------------------------|
B|--------------------------------|
G|--------------------------------|
D|---5-3-0-8----------------------| x13
A|---5-3-0-8----------------------|
D|---5-3-0-8----------------------|

Guitar 2
guitar 2 comes in after x5 when the all the others come in.

E|--------------------------------|
B|--------------------------------|
G|--------------------------------|
D|---5-3-0-8----------------------| x8
A|---5-3-0-8----------------------|
D|---5-3-0-8----------------------|
            
Hard to play? Try these video lessons and learn fast. | Correct




comments powered by Disqus
↑ Back to top | Tablatures and chords are parodies/interpretations of the original songs. You may use it for private study, scholarship, research or language learning purposes only