>
 >
Burn It All 1

Burn It All 1 Guitar Tabs

Fei Comodo - Burn It All 1 chords, tabs, tablatures, lyrics

Guitar lessons | Add/correct | Request | Top 50 tabs Artists:  A B C D E F G H I J K L M N O P Q R S T U V W X Y Z 0-9

Burn It All 1 Guitar Tabs – Fei Comodo

CD, Sheet music, Poster

Do you like Burn It All 1? Share with your friends now
TabsTabs v2
Fei Comodo
Burn It All (Demo)
Guitar Tab
Drop D Tuning

This Is The Demo Version Of The Song.

. Palm Mute
/ Slide Up
\ Slide Down
h Hammer On
p Pull Off
v Vibrato
x Muted String (Dead Note)
R Ring Out/Hold Note
+ Natural Harmonic
* Pinch Harmonic
f Feed Back
u Upward Strum
t Tremelo




Intro



Rhythm Guitar
0:00
|----------|----------|----------|--------------|
|----------|----------|----------|--------------|
|----------|----------|----------|--------------|
|----------|----------|----------|--------------| x1
|--------1v|--------1v|--------1v|--------------|
|3/5-3-0---|3/5-3-0---|3/5-3-0---|3/5-3-0--000-0|
                                        .  ... .

0:04
|---------|---------|---------|---------------|
|--------6|--------6|--------6|---------------|
|5/7-5---x|5/7-5---x|5/7-5---x|5-7-5----------|
|x-x-x---3|x-x-x---3|x-x-x---3|x-x-x----------| x1
|3/5-3----|3/5-3----|3/5-3----|3/5-3-0-0-000-0|
|------0--|------0--|------0--|------0-0-000-0|
       .         .         .         . . ... .

0:09
|---------|---------|---------|---------------|
|---------|---------|---------|---------------|
|---------|---------|---------|---------------|
|--------3|--------3|--------3|---------------| x1
|3/5-3-0-1|3/5-3-0-1|3/5-3-0-1|3/5-3-0-0-000-0|
|3/5-3-0--|3/5-3-0--|3/5-3-0--|3/5-3-0-0-000-0|
                                     . . ... .

Lead Guitar
0:00
|----------|----------|----------|--------------|
|----------|----------|----------|--------------|
|----------|----------|----------|--------------|
|----------|----------|----------|--------------| x1
|--------1v|--------1v|--------1v|--------------|
|3/5-3-0---|3/5-3-0---|3/5-3-0---|3/5-3-0--000-0|
                                        .  ... .

0:04
|---------|---------|---------|---------------|
|---------|---------|---------|---------------|
|---------|---------|---------|---------------|
|--------3|--------3|--------3|---------------| x1
|3/5-3---1|3/5-3---1|3/5-3---1|3/5-3-0-0-000-0|
|3/5-3-0--|3/5-3-0--|3/5-3-0--|3/5-3-0-0-000-0|
       .         .         .         . . ... .

0:09
|---------|---------|---------|---------------|
|---------|---------|---------|---------------|
|---------|---------|---------|---------------|
|--------3|--------3|--------3|---------------| x1
|3/5-3-0-1|3/5-3-0-1|3/5-3-0-1|3/5-3-0-0-000-0|
|3/5-3-0--|3/5-3-0--|3/5-3-0--|3/5-3-0-0-000-0|
                                     . . ... .


Verse One


Rhythm Guitar
0:14
|------------------------------|-------------------------------|
|------------------------------|-------------------------------|
|------------------------------|-------------------------------|
|2---3-----3h5---7\\-----------|3---2-----3--------------------| x1
|---------------------0-0-000-0|--------------5---5\\-0-0-000-0|
|--0---0-0-----0------0-0-000-0|--0---0-0---0---0-----0-0-000-0|
   .   . .     .      . . ... .   .   . .   .   .     . . ... .

0:19
|------------------------------|-------------------------------|
|------------------------------|-------------------------------|
|------------------------------|-------------------------------|
|2---3-----3h5---7\\-----------|3---2-----3--------------------| x1
|---------------------0-0-000-0|--------------5---5\\-0-0------|
|--0---0-0-----0------0-0-000-0|--0---0-0---0---0-----0-0-55555|
   .   . .     .      . . ... .   .   . .   .   .     . . +++++

0:24
|------------------------------|-------------------------------|
|------------------------------|-------------------------------|
|------------------------------|-------------------------------|
|2---3-----3h5---7\\-----------|3---2-----3--------------------| x1
|---------------------0-0-000-0|--------------5---5\\-0-0-000-0|
|--0---0-0-----0------0-0-000-0|--0---0-0---0---0-----0-0-000-0|
   .   . .     .      . . ... .   .   . .   .   .     . . ... .

0:28
|------------------------------|-------------------------------|
|------------------------------|-------------------------------|
|------------------------------|-------------------------------|
|2---3-----3h5---7\\-----------|3---2-----3--------------------| x1
|---------------------0-0-000-0|--------------5---7-77-77-77-77|
|--0---0-0-----0------0-0-000-0|--0---0-0---0---0-7-77-77-77-77|
   .   . .     .      . . ... .   .   . .   .   .   .. .. .. ..


Lead Guitar
0:14
|------------------------------|------------------------------|
|------------------------------|----------------5*\\----------|
|0---2-----2h3---7\\-----------|7---5-----5p4-----------------|
|------------------------------|------------------------------| x1
|---------------------0-0-000-0|---------------------0-0-000-0|
|--0---0-0-----0------0-0-000-0|--0---0-0-----0------0-0-000-0|
   .   . .     .      . . ... .   .   . .     .      . . ... .

0:19  
|------------------------------|------------------------------|
|------------------------------|----------------5*\\----------|
|0---2-----2h3---7\\-----------|7---5-----5p4-----------------|
|------------------------------|------------------------------| x1
|---------------------0-0-000-0|---------------------0-0------|
|--0---0-0-----0------0-0-000-0|--0---0-0-----0------0-0-55555|
   .   . .     .      . . ... .   .   . .     .      . . +++++

0:24
|------------------------------|------------------------------|
|------------------------------|----------------5*\\----------|
|0---2-----2h3---7\\-----------|7---5-----5p4-----------------|
|------------------------------|------------------------------| x1
|---------------------0-0-000-0|---------------------0-0-000-0|
|--0---0-0-----0------0-0-000-0|--0---0-0-----0------0-0-000-0|
   .   . .     .      . . ... .   .   . .     .      . . ... .

0:28
|------------------------------|---------------------------------|
|------------------------------|---------------------------------|
|0---2-----2h3---7\\-----------|7---5-----5p4--------------------|
|------------------------------|----------------7\\--------------| x1
|---------------------0-0-000-0|--------------------7-77-77-77-77|
|--0---0-0-----0------0-0-000-0|--0---0-0-----0-----7-77-77-77-77|
   .   . .     .      . . ... .   .   . .     .       .. .. .. ..



Verse Extension


Rhythm Guitar
0:34
|-------------------------------------|--------------------------------|
|-------------------------------------|--------------------------------|
|-------------------------------------|--------------------------------|
|5-7\---------------3-------------5-7\|--------------3--------------1-0|
|3-5\-00-00-00-00-0-3-33-33-33-33-3-5\|00-00-00-00-0-3-33-33-33-333-1-0|
|-----00-00-00-00-0-3-33-33-33-33-----|00-00-00-00-0-3-33-33-33-333-1-0|
      .. .. .. .. .   .. .. .. ..      .. .. .. .. .   .. .. .. ...

0:44
|-----------------------------|--------------------------------|
|-----------------------------|--------------------------------|
|-----------------------------|--------------------------------|
|--------------3--------------|5---------------6---------------| x1
|00-00-00-00-0-3-33-33-33-33-3|5-55-55-55-55-5-6-66666-66655553|
|00-00-00-00-0-3-33-33-33-33-3|5-55-55-55-55-5-6-66666-66655553|
 .. .. .. .. .   .. .. .. .. .   .. .. .. .. .   .....


Lead Guitar
0:34
|5---------------|10---------------|10---------------|5-------------------|
|--5-------------|---8-------------|---7-------------|--5-------------8-7-|
|----7-77-77-77-7|-----7-77-77-77-7|-----7-77-77-77-7|----7-77-77-777-----|
|----------------|-----------------|-----------------|--------------------| x1
|----------------|-----------------|-----------------|--------------------|
|----------------|-----------------|-----------------|--------------------|
       .. .. .. .        .. .. .. .        .. .. .. .       .. .. ...  

0:44
|------------------------------------------|-----------------------------------------------|
|--------------8---8---7-8-----10-----7---8|--8---8---7-8-----10-----7---8-9-9999-9998888\6|
|------------------------------------------|-------------------------------x-xxxx-xxxxxxx-x|
|------------------------------------------|-------------------------------6-6666-6665555\3| x1
|00-00-00-00-------------------------------|-----------------------------------------------|
|00-00-00-00-0---0---0-----0-0----0-0---0--|0---0---0-----0-0----0-0---0-------------------|
 .. .. .. .. .   .   .     . .    . .   .   .   .   .     . .    . .   .     ....


Intro Riff


Rhythm Guitar
0:54
|---------|---------|---------|---------------|
|--------6|--------6|--------6|---------------|
|5/7-5---x|5/7-5---x|5/7-5---x|5-7-5----------|
|x-x-x---3|x-x-x---3|x-x-x---3|x-x-x----------| x1
|3/5-3----|3/5-3----|3/5-3----|3/5-3-0-0-000-0|
|------0--|------0--|------0--|------0-0-000-0|
       .         .         .         . . ... .

0:58
|---------|---------|---------|---------------|
|---------|---------|---------|---------------|
|---------|---------|---------|---------------|
|--------3|--------3|--------3|---------------| x1
|3/5-3-0-1|3/5-3-0-1|3/5-3-0-1|3/5-3-0-0-000-0|
|3/5-3-0--|3/5-3-0--|3/5-3-0--|3/5-3-0-0-000-0|
                                     . . ... .

Lead Guitar
0:54
|---------|---------|---------|---------------|
|---------|---------|---------|---------------|
|---------|---------|---------|---------------|
|--------3|--------3|--------3|---------------| x1
|3/5-3---1|3/5-3---1|3/5-3---1|3/5-3-0-0-000-0|
|3/5-3-0--|3/5-3-0--|3/5-3-0--|3/5-3-0-0-000-0|
       .         .         .         . . ... .

0:58
|---------|---------|---------|---------------|
|---------|---------|---------|---------------|
|---------|---------|---------|---------------|
|--------3|--------3|--------3|---------------| x1
|3/5-3-0-1|3/5-3-0-1|3/5-3-0-1|3/5-3-0-0-000-0|
|3/5-3-0--|3/5-3-0--|3/5-3-0--|3/5-3-0-0-000-0|
                                     . . ... .

Verse Two


Rhythm Guitar
1:03
|------------------------------|-------------------------------|
|------------------------------|-------------------------------|
|------------------------------|-------------------------------|
|2---3-----3h5---7\\-----------|3---2-----3--------------------| x1
|---------------------0-0-000-0|--------------5---5\\-0-0-000-0|
|--0---0-0-----0------0-0-000-0|--0---0-0---0---0-----0-0-000-0|
   .   . .     .      . . ... .   .   . .   .   .     . . ... .

1:08
|------------------------------|-------------------------------|
|------------------------------|-------------------------------|
|------------------------------|-------------------------------|
|2---3-----3h5---7\\-----------|3---2-----3--------------------| x1
|---------------------0-0-000-0|--------------5---5\\-0-0------|
|--0---0-0-----0------0-0-000-0|--0---0-0---0---0-----0-0-55555|
   .   . .     .      . . ... .   .   . .   .   .     . . +++++

1:13
|------------------------------|-------------------------------|
|------------------------------|-------------------------------|
|------------------------------|-------------------------------|
|2---3-----3h5---7\\-----------|3---2-----3--------------------| x1
|---------------------0-0-000-0|--------------5---5\\-0-0-000-0|
|--0---0-0-----0------0-0-000-0|--0---0-0---0---0-----0-0-000-0|
   .   . .     .      . . ... .   .   . .   .   .     . . ... .

1:17
|------------------------------|-------------------------------|
|------------------------------|-------------------------------|
|------------------------------|-------------------------------|
|2---3-----3h5---7\\-----------|3---2-----3--------------------| x1
|---------------------0-0-000-0|--------------5---7-77-77-77-77|
|--0---0-0-----0------0-0-000-0|--0---0-0---0---0-7-77-77-77-77|
   .   . .     .      . . ... .   .   . .   .   .   .. .. .. ..


Lead Guitar
1:03
|------------------------------|------------------------------|
|------------------------------|----------------5*\\----------|
|0---2-----2h3---7\\-----------|7---5-----5p4-----------------|
|------------------------------|------------------------------| x1
|---------------------0-0-000-0|---------------------0-0-000-0|
|--0---0-0-----0------0-0-000-0|--0---0-0-----0------0-0-000-0|
   .   . .     .      . . ... .   .   . .     .      . . ... .

1:08
|------------------------------|------------------------------|
|------------------------------|----------------5*\\----------|
|0---2-----2h3---7\\-----------|7---5-----5p4-----------------|
|------------------------------|------------------------------| x1
|---------------------0-0-000-0|---------------------0-0------|
|--0---0-0-----0------0-0-000-0|--0---0-0-----0------0-0-55555|
   .   . .     .      . . ... .   .   . .     .      . . +++++

1:13
|------------------------------|------------------------------|
|------------------------------|----------------5*\\----------|
|0---2-----2h3---7\\-----------|7---5-----5p4-----------------|
|------------------------------|------------------------------| x1
|---------------------0-0-000-0|---------------------0-0-000-0|
|--0---0-0-----0------0-0-000-0|--0---0-0-----0------0-0-000-0|
   .   . .     .      . . ... .   .   . .     .      . . ... .

1:17
|------------------------------|---------------------------------|
|------------------------------|---------------------------------|
|0---2-----2h3---7\\-----------|7---5-----5p4--------------------|
|------------------------------|----------------7\\--------------| x1
|---------------------0-0-000-0|--------------------7-77-77-77-77|
|--0---0-0-----0------0-0-000-0|--0---0-0-----0-----7-77-77-77-77|
   .   . .     .      . . ... .   .   . .     .       .. .. .. ..



Verse Extension


Rhythm Guitar
1:23
|-------------------------------------|--------------------------------|
|-------------------------------------|--------------------------------|
|5-7\-----------------------------5-7\|--------------------------------|
|5-7\---------------3-------------5-7\|--------------3--------------1-0|
|3-5\-00-00-00-00-0-3-33-33-33-33-3-5\|00-00-00-00-0-3-33-33-33-333-1-0|
|-----00-00-00-00-0-3-33-33-33-33-----|00-00-00-00-0-3-33-33-33-333-1-0|
      .. .. .. .. .   .. .. .. ..      .. .. .. .. .   .. .. .. ...

1:33
|-----------------------------|--------------------------------|
|-----------------------------|--------------------------------|
|-----------------------------|--------------------------------|
|--------------3--------------|5---------------6---------------| x1
|00-00-00-00-0-3-33-33-33-33-3|5-55-55-55-55-5-6-66666-66655553|
|00-00-00-00-0-3-33-33-33-33-3|5-55-55-55-55-5-6-66666-66655553|
 .. .. .. .. .   .. .. .. .. .   .. .. .. .. .   .....


Lead Guitar
1:24
|5---------------|10---------------|10---------------|5-------------------|
|--5-------------|---8-------------|---7-------------|--5-------------8-7-|
|----7-77-77-77-7|-----7-77-77-77-7|-----7-77-77-77-7|----7-77-77-777-----|
|----------------|-----------------|-----------------|--------------------| x1
|----------------|-----------------|-----------------|--------------------|
|----------------|-----------------|-----------------|--------------------|
       .. .. .. .        .. .. .. .        .. .. .. .       .. .. ... 

1:33
|------------------------------------------|-----------------------------------------------|
|--------------8---8---7-8-----10-----7---8|--8---8---7-8-----10-----7---8-9-9999-9998888\6|
|------------------------------------------|-------------------------------x-xxxx-xxxxxxx-x|
|------------------------------------------|-------------------------------6-6666-6665555\3|
|00-00-00-00-------------------------------|-----------------------------------------------|
|00-00-00-00-0---0---0-----0-0----0-0---0--|0---0---0-----0-0----0-0---0-------------------|
 .. .. .. .. .   .   .     . .    . .   .   .   .   .     . .    . .   .     ....



Chorus Build Up


Rhythm Guitar
1:43
|-------------------------------------|--------------------------------------|
|----------------------------------6--|------------------8-88-8-11-10-10-1010|
|7-77-7777-777-7\55-7-77-7777-777--x-5|3-33-3333-5555555-x-xx-x--x--x--x--x-x|
|x-xx-xxxx-xxx-x-xx-x-xx-xxxx-xxx--3-x|3-33-3333-5555555-5-55-5--8--7--7--7-7| x1
|5-55-5555-555-5\33-5-55-5555-555----3|1-11-1111-3333333---------------------|
|-------------------------------------|--------------------------------------|

1:52
|-------------------------------------|--------------------------------------|
|----------------------------------6--|------------------8-88-8-11-10-10-10--|
|7-77-7777-777-7\55-7-77-7777-777--x-5|3-33-3333-5555555-x-xx-x--x--x--x--x--|
|x-xx-xxxx-xxx-x-xx-x-xx-xxxx-xxx--3-x|3-33-3333-5555555-5-55-5--8--7--7--7--| x1
|5-55-5555-555-5\33-5-55-5555-555----3|1-11-1111-3333333---------------------|
|-------------------------------------|--------------------------------------|


Lead Guitar
1:43
|---------------------------------------|---------------------------------|
|---------------------------------------|6-66-6666-8888888----------------|
|7-77-7777-777-7/1010-7-77-7777-777-7/10|x-xx-xxxx-xxxxxxx----------------|
|x-xx-xxxx-xxx-x--x-x-x-xx-xxxx-xxx-x--x|3-33-3333-5555555-1-1-1---3-3-3-3| x1
|5-55-5555-555-5/-8-8-5-55-5555-555-5/-8|------------------1-1-1-1-3-3-3-3|
|---------------------------------------|------------------1-1-1---3-3-3-3|

1:52
|---------------------------------------|---------------------------------|
|---------------------------------------|6-66-6666-8888888----------------|
|7-77-7777-777-7/1010-7-77-7777-777-7/10|x-xx-xxxx-xxxxxxx----------------|
|x-xx-xxxx-xxx-x--x-x-x-xx-xxxx-xxx-x--x|3-33-3333-5555555-1-1-1---3-3-3--| x1
|5-55-5555-555-5/-8-8-5-55-5555-555-5/-8|------------------1-1-1-1-3-3-3--|
|---------------------------------------|------------------1-1-1---3-3-3--|



Chorus One


Rhythm Guitar
2:02
|---------------------------------|--------------------------------------------------|
|---------------------------------|----------------1010101010101010-11111111-13131313|
|---------------------------------|-----------------x-x-x-x-x-x-x-x--x-x-x-x--x-x-x-x|
|5555555555555555-8888888888888888|0000000000000000-7-7-7-7-7-7-7-7--8-8-8-8-10101010| x2
|5555555555555555-8888888888888888|0000000000000000----------------------------------|
|5555555555555555-8888888888888888|0000000000000000----------------------------------|

Lead Guitar
2:02
|-----------------10----------10----------|5-------5-----------------------------------------|
|-----------------------10----------10----|----6-------6---1010101010101010-11111111-13131313|
|--------------------10----10----10----10-|--7---7---7---7--x-x-x-x-x-x-x-x--x-x-x-x--x-x-x-x|
|5555555555555555-------------------------|-----------------7-7-7-7-7-7-7-7--8-8-8-8-10101010| x2
|5555555555555555-------------------------|--------------------------------------------------|
|5555555555555555-------------------------|--------------------------------------------------|

Bridge Section One


Rhythm Guitar
2:21
|-----------------|-----------------------------| 
|--------------6--|-----------------------------|
|-----5----------7|----5/7---7-7/9---9-9/10-9-7\|
|-------5---------|--------7-------7------------| x1
|7--7-----7-/8----|8-8--------------------------|
|-----------------|-----------------------------|

2:31
|-----------------|-------------------------------|------------------------------| 
|--------------6--|-----------------------------8-|6--8/10--8h10p8----6h8p6------|
|-----5----------7|----5/7---7-7/9---9-9/10-9-7---|----------------10-------7-7\\|
|-------5---------|--------7-------7--------------|------------------------------| x1
|7--7-----7-/8----|8-8----------------------------|------------------------------|
|-----------------|-------------------------------|------------------------------|


Lead Guitar
2:21
|----------------|-----1---1-1/3---3-3/5-3-1| 
|-----5-------3--|3v-3---3-------3----------|
|5--5---5-0-3---3|--------------------------|
|----------------|--------------------------| x1
|----------------|--------------------------|
|----------------|--------------------------|

2:31
|-----------------|-----1---1-1/3---3-3/5-3-1|------------------------------------|
|------5-------3--|3v-3---3-------3----------|/5--3R--ffffffffffffffffffffffffffff|
|3/5-5---5-0-3---3|--------------------------|------------------------------------|
|-----------------|--------------------------|------------------------------------| x1
|-----------------|--------------------------|------------------------------------|
|-----------------|--------------------------|------------------------------------|


Verse Extension


Rhythm Guitar
                2:49
|-------------------------------------|--------------------------------------|
|----------------------------------6--|------------------8-88-8-11-10-10-1010|
|---------------7\5-7-77-7777-777--x-5|3-33-3333-5555555-x-xx-x--x--x--x--x-x|
|---------------x-x-x-xx-xxxx-xxx--3-x|3-33-3333-5555555-5-55-5--8--7--7--7-7| x1
|---------------5\3-5-55-5555-555----3|1-11-1111-3333333---------------------|
|-------------------------------------|--------------------------------------|

2:57
|-------------------------------------|--------------------------------------|
|----------------------------------6--|------------------8-88-8-11-10-10-10--|
|7-77-7777-777-7\55-7-77-7777-777--x-5|3-33-3333-5555555-x-xx-x--x--x--x--x--|
|x-xx-xxxx-xxx-x-xx-x-xx-xxxx-xxx--3-x|3-33-3333-5555555-5-55-5--8--7--7--7--| x1
|5-55-5555-555-5\33-5-55-5555-555----3|1-11-1111-3333333---------------------|
|-------------------------------------|--------------------------------------|


Lead Guitar
2:48
|-------------------------------------|---------------------------------|
|-------------------------------------|6-66-6666-8888888----------------|
|7-7-7-7-7-7-7-7/10-7-77-7777-777-7/10|x-xx-xxxx-xxxxxxx----------------|
|x-x-x-x-x-x-x-x--x-x-xx-xxxx-xxx-x--x|3-33-3333-5555555-1-1-1---3-3-3-3| x1
|5-5-5-5-5-5-5-5/-8-5-55-5555-555-5/-8|------------------1-1-1-1-3-3-3-3|
|-------------------------------------|------------------1-1-1---3-3-3-3|

2:57
|---------------------------------------|---------------------------------|
|---------------------------------------|6-66-6666-8888888----------------|
|7-77-7777-777-7/1010-7-77-7777-777-7/10|x-xx-xxxx-xxxxxxx----------------|
|x-xx-xxxx-xxx-x--x-x-x-xx-xxxx-xxx-x--x|3-33-3333-5555555-1-1-1---3-3-3--| x1
|5-55-5555-555-5/-8-8-5-55-5555-555-5/-8|------------------1-1-1-1-3-3-3--|
|---------------------------------------|------------------1-1-1---3-3-3--|



Chorus Two


Rhythm Guitar
3:07
|---------------------------------|--------------------------------------------------|
|---------------------------------|----------------1010101010101010-11111111-13131313|
|---------------------------------|-----------------x-x-x-x-x-x-x-x--x-x-x-x--x-x-x-x|
|5555555555555555-8888888888888888|0000000000000000-7-7-7-7-7-7-7-7--8-8-8-8-10101010| x2
|5555555555555555-8888888888888888|0000000000000000----------------------------------|
|5555555555555555-8888888888888888|0000000000000000----------------------------------|

Lead Guitar
3:07
|-----------------10----------10----------|5-------5-----------------------------------------|
|-----------------------10----------10----|----6-------6---1010101010101010-11111111-13131313|
|--------------------10----10----10----10-|--7---7---7---7--x-x-x-x-x-x-x-x--x-x-x-x--x-x-x-x|
|5555555555555555-------------------------|-----------------7-7-7-7-7-7-7-7--8-8-8-8-10101010| x2
|5555555555555555-------------------------|--------------------------------------------------|
|5555555555555555-------------------------|--------------------------------------------------|


Bridge Section Two

Rhythm Guitar (Played Clean)
3:26
|------------------8|-----------------------------| 
|--------------6---6|-----------------------------|
|-----5----------7-7|----5/7---7-7/9---9-9/10-9-7\|
|---5---5-----------|--------7-------7------------| x1
|3--------7-/8------|-----------------------------|
|-------------------|0----------------------------|
                   U
3:36
|-----------------|5555-5333| 
|--------------6--|6666-6555|
|-----5----------7|7777-7555|
|-------5---------|---------| x1
|3--------7-/8----|---------|
|-----------------|---------|


Lead Guitar (Played Clean)
3:26
|-------------1---1|----1---1-1/3---3-3/5-3-1| 
|-----5-------3---3|--3---3-------3----------|
|---5---5-0-----3-3|-------------------------|
|------------------|-------------------------| x1
|3----------1------|-------------------------|
|------------------|-------------------------|
                  U
3:36               
|-----------------|5555-5333|
|------5-------3--|6666-6555|
|3/5-5---5-0-----3|7777-7555|
|-----------------|---------| x1
|------------1----|---------|
|-----------------|---------|


Outro

Rhythm Guitar
3:43
|-----------------------------------------|------------------------------------|
|-----------------------------------------|------------------------------------|
|----7-\\-----------------------------5---|---------------------------------8-7|
|2-5-7-\\---------------3-------------x---|------------------3--------------x-x| x1
|0-3-5-\\-00-00-00-00-0-3-33-33-33-33-3-5\|000-000-000-000-0-3-33-33-33-333-6-5|
|---------00-00-00-00-0-3-33-33-33-33---7\|000-000-000-000-0-3-33-33-33-333----|
          .. .. .. .. .   .. .. .. ..      ... ... ... ... .   .. .. .. ...

3:52
|-------------------------------|--------------------------------|
|----------------------------5-6|--------------------------------|
|----------------------------x-x|--------------------------------|
|--------------3-------------2-3|--------------3--------------1-0| x1
|00-00-00-00-0-3-33-33-33-33----|00-00-00-00-0-3-33-33-33-333-1-0|
|00-00-00-00-0-3-33-33-33-33----|00-00-00-00-0-3-33-33-33-333-1-0|
 .. .. .. .. .   .. .. .. ..     .. .. .. .. .   .. .. .. ...

3:02
|--------------------------------|--------------------------------|
|--------------------------------|--------------------------------|
|----------------------------5-7\|--------------------------------|
|--------------3-------------5-7\|--------------3--------------4-4| x1
|00-00-00-00-0-3-33-33-33-33-3-5\|00-00-00-00-0-3-33-33-33-333-5-5|
|00-00-00-00-0-3-33-33-33-33-----|00-00-00-00-0-3-33-33-33-333----|
 .. .. .. .. .   .. .. .. ..      .. .. .. .. .   .. .. .. ...

4:12                                      ttttttttt
|--------------------------------|---------------------------------------|
|--------------------------------|---------------------------------------|
|----------------------------5-7\|------------------------------------8-7|
|--------------3-------------5-7\|---------------------3--------------x-x| x1
|00-00-00-00-0-3-33-33-33-33-3-5\|00-00-0-6666655553h5-3-33-33-33-333-6-5|
|00-00-00-00-0-3-33-33-33-33-----|00-00-0--------------3-33-33-33-333----|
 .. .. .. .. .   .. .. .. ..      .. .. .                .. .. .. ...

 Fades Out
|---------------------------|
|---------------------------|
|---------------------------|
|--------------3------------| x1
|--------------3-33-33-33-33|
|00-00-00-00-0-3-33-33-33-33|
                 .. .. .. ..


Lead Guitar
3:43
|-----------------------------------------|------------------------------------|
|-----------------------------------------|---------------------------------8-7|
|----7-\\-----------------------------5-7\|---------------------------------x-x|
|2-5-7-\\---------------3-------------x-x-|------------------3--------------5-4| x1
|0-3-5-\\-00-00-00-00-0-3-33-33-33-33-3-5\|000-000-000-000-0-3-33-33-33-333----|
|---------00-00-00-00-0-3-33-33-33-33-----|000-000-000-000-0-3-33-33-33-333----|
          .. .. .. .. .   .. .. .. ..      ... ... ... ... .   .. .. .. ...

3:52
|--------------------------------|--------------------------------|
|--------------------------------|--------------------------------|
|----------------------------5-7\|--------------------------------|
|--------------3-------------x-x-|--------------3--------------1-0| x2
|00-00-00-00-0-3-33-33-33-33-3-5\|00-00-00-00-0-3-33-33-33-333-1-0|
|00-00-00-00-0-3-33-33-33-33-----|00-00-00-00-0-3-33-33-33-333-1-0|
 .. .. .. .. .   .. .. .. ..      .. .. .. .. .   .. .. .. ...

4:12                                      ttttttttt
|--------------------------------|---------------------------------------|
|--------------------------------|------------------------------------8-7|
|----------------------------5-7\|------------------------------------x-x|
|--------------3-------------x-x-|---------------------3--------------5-4| x1
|00-00-00-00-0-3-33-33-33-33-3-5\|00-00-0-6666655553h5-3-33-33-33-333----|
|00-00-00-00-0-3-33-33-33-33-----|00-00-0--------------3-33-33-33-333----|
 .. .. .. .. .   .. .. .. ..      .. .. .               .. .. .. ...

 Fades Out
|---------------------------|
|---------------------------|
|---------------------------|
|--------------3------------| x1
|--------------3-33-33-33-33|
|00-00-00-00-0-3-33-33-33-33|
                 .. .. .. ..





Comments


Popular Fei Comodo tabs & chords
Emo Rangers Bass Tabs
Emo Rangers Chords
Break The Ice Tabs
Break The Ice 2 Tabs
Burn It All Tabs
Burn It All Intro 1 Tabs
Emo Rangers Tabs
The Air Is Cold Tonight Tabs
Try No More Tabs
Emo Rangers Ukulele


Song lyrics



↑ Back to top | Tablatures and chords are parodies/interpretations of the original songs. You may use it for private study, scholarship, research or language learning purposes only
© 2014 AZChords.com Contact us | Privacy policy | DMCA | Add/correct tabs | Request tabs | Top 50 tabs