>
 >
Never Be Lonely 1

Never Be Lonely 1 Bass Tabs

Feeling - Never Be Lonely 1 chords, tabs, tablatures, lyrics

Guitar lessons | Add/correct | Request | Top 50 tabs Artists:  A B C D E F G H I J K L M N O P Q R S T U V W X Y Z 0-9

Never Be Lonely 1 Bass Tabs – Feeling

CD, Sheet music, Poster

Do you like Never Be Lonely 1? Share with your friends now
Bass TabsBass Tabs v2ChordsChords v2TabsTabs v2Tabs v3Ukulele
----------------------------Never Be Lonely---------------------------------



Start:

G|-------------------|
D|-------------------| X10
A|--15-15------------|
E|--------15-15--8---|


Pre chorus:

G|-------------------------------------------------------------|
D|------15-14--------12-14--------15---------------------------|
A|------------------------------------13-13-13-13-13-13-13-----|
E|--13--------12--10-------12--13------------------------------|


Chorus: Play twice

G|----------------------------------------------------------------|
D|----------------------------------------------------------------|
A|--11-11-11--13-14-11--------------------------------------------|
E|-----------------------15-15-15--17-18-15---13-13-13--15-16-13--|


G|------------------------|
D|------------------------|
A|------------------------|
E|--12-12-12-8-10-12------|


G|----------------------------------------------------------------|
D|----------------------------------------------------------------|
A|--11-11-11--13-14-11--------------------------------------------|
E|-----------------------15-15-15--17-18-15---13-13-13--15-16-13--|


G|-----------------------|
D|-----------------------|
A|---------10-12-14-15---|
E|-12-8-10---------------|


Start again X10

Pre chorus again

Chorus again X2


Pre Solo:
(im not 100% sure on this)
      G                                            A
G|-----------------------------------------------------------------------|
D|-----------------------------------------------------------------------|
A|--------------------------------13-15-18-19------12-12-12-14-15-12-12-8|
E|--15-15-15-17-18-15-15-11-13-15----------------------------------------|

G|---------------------------------------------------------------|
D|---------------------------------------------------------------|
A|-10-12---------------------------------------------------------|
E|---------------------------------------------------------------|


Solo:

G|--------------------------------------------------------------------|
D|--------------------------------------------------------------------|
A|--15-15-----------15-15-------------15----------15-15---------------|
E|--------15-15-8---------15-15-8-8------15-15-8-------15-15-8-8-8----|

G|---------------------------------|
D|---------------------------------|
A|---------------------------------|
E|--13--12--10--12--8--------------|

No bass for a while.....

Ending:


G|--------------------------------------------------------|
D|--------------------------------------------------------|(play until fade
A|--------------------------------------------------------| out)
E|--13-13-13-13--12-12-12-12--10-10-10-10--12-12-12-12----|


think thats about it not sure about the pre solo but everything else i think is pretty accurate

zach_evil





Comments


Popular Feeling tabs & chords
Fill My Little World 1 Bass Tabs
Fill My Little World Right Up Chords
I Love It When You Call Chords
Love It When You Call 1 Chords
Rose 2 Chords
Turn It Up Chords
Untitled Chords
Without You Chords
Dont Make Me Sad Ukulele
This Time Ukulele


Song lyrics



↑ Back to top | Tablatures and chords are parodies/interpretations of the original songs. You may use it for private study, scholarship, research or language learning purposes only
© 2014 AZChords.com Contact us | Privacy policy | DMCA | Add/correct tabs | Request tabs | Top 50 tabs