» » »

Feeling, Never Be Lonely Tabs (ver.1)

Artists:  A B C D E F G H I J K L M N O P Q R S T U V W X Y Z # 

Never Be Lonely Tabs (ver.1)

Feeling Tabs
 Rating:
3.4/5 (9 votes)
Never Be Lonely lessons Tabs too difficult? Try these video lessons and learn fast
                Never Be Lonely- Feeling


ive played this over and over and its sounds pretty accurate,
"1st tab, be gentle :)"

chords used in intro/verse/pre chorus/outro,
(please comment if you know the first distorted chord),

C  0,3,2,0,1,0
F  1,3,3,2,1,1 or x,x,3,2,1,1 <-(quick easy change to and from C)
Dm x,x,0,2,3,1

   Verse 1,

C             F            C        F
    People in love they're fast and foolish
C             F        C          F
    People in love get everything wrong
C             F        C          F
    People in love get scared and stupid
C             F        C          F
    People in love get everything wrong


   Pre Chorus,

F                      C
  At least they're not lonely
Dm                     C
  At least they're not lonely
F
  They'll never be lonelyyyy


As soon as he sings the "lyyy" on lonely play this..

"NOTE,the last three notes are optional, i listened to the
record a few times and i dont think there are the last three
notes but i seem to automatically play them anyway :)"

Lone..llyyyyyyyyyyyyyyyyyyyyyyyyyyyyyyy
   e:--8-----8-----8-----8-----8-------|
   B:----6-----6-----6-----6-----6-----|
   G:------7-----7-----7-----7-----7---|
   D:----------------------------------|
   A:----------------------------------|
   E:----------------------------------|


   Chorus 2,

In the chorus the guitar comes in on the second set of lyrics
but you can play it through the first part aswell if you dont
have a keyboard player handy :).

play these in little quick-wrist strums

    1  2  3  4  1  2  3  4  1  2  3  4  1  2  3  4 <- (count in head)
    |  |  |  |  |  |  |  |  |  |  |  |  |  |  |  |
e:--4--4--4--4--3--3--3--3--4--4--4--4--3--3--3--3--------|\
B:--4--4--4--4--4--4--4--4--6--6--6--6--5--5--5--5---|----|\
G:--5--5--5--5--3--3--3--3--5--5--5--5--5--5--5--5---| |--|\X2
D:--6--6--6--6--------------------------------------------|\ | (X4 if played
A:--------------------------------------------------------|\ |  from start of
E:--------------------------------------------------------|\   chorus)

B-b-b-baby
I think I'm going c-c-c-crazy
Why should I be sane without you (ahh)

(guitar starts here on the original)
They tell me to fight it
They can bloody well just try it
I'll never be the same without you (ahh)


   Verse 2,

C             F        C       F
    People in love get special treatment
C             F        C          F
    People in love get everything wrong
C             F          C          F
    People in love their hearts get eaten
C             F        C          F
    People in love get everything wrong

   Pre Chorus,

F                      C
  At least they're not lonely
Dm                     C
  At least they're not lonely
F
  They'll never be lonelyyyy

Lone..llyyyyyyyyyyyyyyyyyyyyyyyyyyyyyyy
   e:--8-----8-----8-----8-----8-------|
   B:----6-----6-----6-----6-----6-----|
   G:------7-----7-----7-----7-----7---|
   D:----------------------------------|
   A:----------------------------------|
   E:----------------------------------|


   Chorus 2,

    1  2  3  4  1  2  3  4  1  2  3  4  1  2  3  4 <- (count in head)
    |  |  |  |  |  |  |  |  |  |  |  |  |  |  |  |
e:--4--4--4--4--3--3--3--3--4--4--4--4--3--3--3--3--------|\
B:--4--4--4--4--4--4--4--4--6--6--6--6--5--5--5--5---|----|\
G:--5--5--5--5--3--3--3--3--5--5--5--5--5--5--5--5---| |--|\X2
D:--6--6--6--6--------------------------------------------|\ | (X4 if played
A:--------------------------------------------------------|\ |  from start of
E:--------------------------------------------------------|\   chorus)

B-b-b-baby
I think I'm going c-c-c-crazy
Why should I be sane without you (ahh)

(guitar starts here on the original)
They tell me to fight it
They can bloody well just try it
I'll never be the same without you (ahh)


    Pre Solo,

When he sings the last (ahh) in the pre chours, there is like
an extension to the chorus that runs up to the solo and i think it goes like this

he keeps singing (ahhhahhhahhh) while these are played

    1  2  3  4  1  2  3  4  1  2  3  4  1  2  3  4  1  2  3  4
    |  |  |  |  |  |  |  |  |  |  |  |  |  |  |  |  |  |  |  |
e:--3--3--3--3--3--3--3--3--5--5--5--5--5-----2-----4--------5-|
B:--3--3--3--3--3--3--3--3--5--5--5--5--5-----2-----4--------5-|
G:--3--3--3--3--3--3--3--3--5--5--5--5--5-----3-----4--------4-|
D:--5--5--5--5--4--4--4--4--7--7--7--7--6-----4-----2--------2-|
A:--------------------------------------------------2--------2-|
E:-------------------------------------------------------------|


    Solo!,

i looked at the others and they sounded wrong, but i am 100% this is right
"NOTE, when you play the 7 on G and the 8 on B, pinch the strings for a nicer sound, 
bring down the pre bent 7 slowly after"

e:---------------------------------------------------------------------------|
B:---8-------------------------8--------------------------------------8-10-8-|
G:-pb7-5-5-----5-----5-------pb7-5-5------------------------5-7-5-7/9--------|
D:---------7p5---7p5---7p5-----------7p5-----5-5-5-7-5-5/7-------------------|
A:---------------------------------------5/7---------------------------------|
E:---------------------------------------------------------------------------|


e:-8-8-8-7------------------------------------------------------------------|
B:---------10-8-----8--6-5------------13-13-13-13\11-11-11-11\10-10-10-10\8-|
G:--------------7/9--------7-5----------------------------------------------|
D:-----------------------------5/7-5----------------------------------------|
A:--------------------------------------------------------------------------|
E:--------------------------------------------------------------------------|


e:---------------|
B:-8-8-8\6-6-5-6-|
G:---------------|
D:---------------|
A:---------------|
E:---------------|

    Outro,

For the outro use the pre chorus chords in the same order, you can either gently strum 
or you can pick them,

if you want to pick them make the chord shape and pick the D,B,E,B,G strings
in that order for each chord.

Comment welcome :)
            
Submit corrections

comments powered by Disqus
↑ Back to top | Feeling Tabs for Never Be Lonely. Lyrics for acoustic guitar and electric guitar. Tablatures and chords are parodies/interpretations of the original songs. You may use it for private study, scholarship, research or language learning purposes only