» » »

Burn The Bridges Bass tabs (ver.1)

Artists:  A B C D E F G H I J K L M N O P Q R S T U V W X Y Z # 

Burn The Bridges Bass tabs (ver.1)

Feeder
Rating:
4/5 (1 vote)

Hard to play? Try these video lessons and learn fast.
                Tuning: Standard

Easy to play, the bridge might be wrong, any corrections/comments, leave a comment or 

Intro:
No bass

Verse 1:
|-----------------------------------|
|-----------------------------------|
|--5-5---5-5---5/9-9-9-9-9-9-9-9-9--| x3
|-----------------------------------|

|-------------------------------------------------------------|
|-------------------------------------------------------------|
|--2-2---2-2---2/5-5-5-5-5-5-5-5-5-2-2---2-2---2/5-5-5-5-5-5--|
|-------------------------------------------------------------|


Chorus:
|-----------------------------------------------------|
|-----------------------------------------------------|
|--5-----5-5---5-----5-5-5----------------------------|
|--------------------------5---5---5-5---7-----7-7-7--|

|---------------------------------|
|---------------------------------|
|--5-5-5-5-5-----5---5-5-5-5-7-7--|
|------------5--------------------|

|-----------------------------------------------------|
|-----------------------------------------------------|
|--5-----5-5---5-----9-9-9----------------------------|
|--------------------------5---5---5-5---7-----7-7-7--|

|---------------------------------|
|---------------------------------|
|--5-5-5-5-5-----5---5-5-5-5-7-7--|
|------------5--------------------|


Intro


Verse 2:
|-----------------------------------|
|-----------------------------------|
|--5-5-5-5-5-5-5-5/9-9-9-9-9-9-9-9--| x3
|-----------------------------------|

|-----------------------------------|
|-----------------------------------|
|--2-2-2-2-2-2-2-2/5-5-5-5-5-5-5-5--|
|-----------------------------------|

|-----------------------------------|
|-----------------------------------|
|--5-5-5-5-5-5-5-5/9-9-9-9-9-9-9-9--| x3
|-----------------------------------|

|-----------------------------------|
|-----------------------------------|
|--2-2-2-2-2-2-2-2/5-5-5-5-5-5-5-5--| x2
|-----------------------------------|


Chorus:
|-----------------------------------------------------|
|-----------------------------------------------------|
|--5-----5-5---5-----5-5-5----------------------------|
|--------------------------5---5---5-5---7-----7-7-7--|

|---------------------------------|
|---------------------------------|
|--5-5-5-5-5-----5---5-5-5-5-7-7--|
|------------5--------------------|

|-----------------------------------------------------|
|-----------------------------------------------------|
|--5-----5-5---5-----9-9-9----------------------------|
|--------------------------5---5---5-5---7-----7-7-7--|

|---------------------------------|
|---------------------------------|
|--5---5-5-5-----5---5-5-5-5-7-7--| x2
|------------5--------------------|


Bridge:
|-------------------------------------------------------------------|
|-------------------------------------------------------------------|
|--7-7-7-7-7-7-7-7-5-5-5-5-5-5-5-5----------------------------------|
|----------------------------------7-7-7-7-7-7-7-7-5-5-5-5-5-5-5-5--|

|--------------------------11-11-11-11---------9-9-9-9--|
|-------------------------------------------------------|
|------------------7-7-7-7-------------5-5-5-5----------|
|--7-7-7-7-7-7-7-7--------------------------------------|

|-------------------------------------------------------------------|
|-------------------------------------------------------------------|
|----------11-11-11-11----------------------------------------------|
|--7-7-7-7-------------5-5-5-5-5-5-5-5------0/2-2-2-----0/14-14-14--|


Intro


Verse 3:
|-----------------------------------|
|-----------------------------------|
|--5-5-5-5-5-5-5-5/9-9-9-9-9-9-9-9--| x3
|-----------------------------------|

|-------------------------------------------------------------|
|-------------------------------------------------------------|
|--2-2-2-2-2-2-2/5-5-5-5-5-5-5-5-5-2-2-2-2-2-2-2/5-5-5-5-5-5--|
|-------------------------------------------------------------|


Chorus:
|-----------------------------------------------------|
|-----------------------------------------------------|
|--------------------5-5-5----------------------------|
|--------------------------5---5---5-5---7-----7-7-7--|

|---------------------------------|
|---------------------------------|
|--5-5-5-5-5-----5---5-5-5-5-7-7--|
|------------5--------------------|

|-----------------------------------------------------|
|-----------------------------------------------------|
|--5-----5-5---5-----9-9-9----------------------------|
|--------------------------5---5---5-5---7-----7-7-7--|

|---------------------------------|
|---------------------------------|
|--5-5-5-5-5-----5---5-5-5-5-7-7--|
|------------5--------------------|

|-----------------------------------------------------|
|-----------------------------------------------------|
|--5-----5-5---5-----9-9-9----------------------------|
|--------------------------5---5---5-5---7-----7-7-7--|

|-----------------------------------------------------|
|-----------------------------------------------------|
|--5-----5-5---5-----9-9-9----------------------------|
|--------------------------5---5---5-5---7-----7-7-7--|

|---------------------------------|
|---------------------------------|
|--5-5-5-5-5-----5---5-5-5-5-7-7--|
|------------5--------------------|

Outro:

|-----------------------------------|
|-----------------------------------|
|--5---5-5-5-----5---5-5-5-5-7-7----|
|------------5-------------------5--|
            
Hard to play? Try these video lessons and learn fast. | Correct




comments powered by Disqus
↑ Back to top | Tablatures and chords are parodies/interpretations of the original songs. You may use it for private study, scholarship, research or language learning purposes only