» » »

Feeder, Burn The Bridges Tabs (ver.3)

Artists:  A B C D E F G H I J K L M N O P Q R S T U V W X Y Z # 

Burn The Bridges Tabs (ver.3)

Feeder Tabs
Rating:
4/5 (4 votes)
Burn The Bridges lessons Tabs too difficult? Try these video lessons and learn fast
                Tuning: Standard

Paste tab into MSword to sort out layout if its not neat.

Intro/Verses (listen for chord changes)
e||--------------------------------------------------|
B|---------------------------------------------------|
G|-7-------------------------------------------------|
D|-7----4--------------------------------------------|
A|-5----4--------------------------------------------|
E|------2--------------------------------------------|
 (x7)  (x9) all down strumming

Second part (also Pre-Chorus)
‘Give me strenth to carry on’ then on ‘She Understands,She Understands’
e||-------------------------------------------------|
B|--------------------------------------------------|
G|-4-----7------------------------------------------|
D|-4-----7------------------------------------------|
A|-2-----5------------------------------------------|
E|--------------------------------------------------|
  (x8)  (x8) all down strumming

LEAD GUITARS IN VERSES (listen for these part)
1:05 (this part is pretty continuous in the verses)
e||-4/5--4/5--4/5--4---------------------------------|5 etc…
B|---------------------------------------------------|

1:06 (this part is played on the F# chord each time)
e||-12-14-12-14--------------------------------------| let ring, listen for part in song
B|---------------------------------------------------|

CHORUS (‘Cause maybe I just don’t believe..)
   Part 1        Part 2 (played straight after part 1)
e||---------|---------------------------------|
B|----------|---------------------------------|
G|-7--------|--7-----7/--9--------------------|
D|-7--7--7--|--7--7--7/--9--------------------|
A|-5--7--7--|--5--7--5/--7--------------------|
E|----5--9--|-----5------0--------------------|
                  (x1)   (x3)

SOLO 1 (Played over Part 2 of chorus, after 2nd chorus)
1:50 (Listen for timing and changing of each note)
e||--------------|   |--------------------------------|
B|---------------|   |--------------------------------|
G|---------------|   |-14-13-11-9-7-6-----------------|
D|---------------|   |-x--x--x-x-x-x------------------|
A|-12-11-9-7-5-4-|or |-12-11—9—7—5-4------------------|
E|---------------|   |--------------------------------|

INTERLUDE (After Solo 1 in part 2 of chorus)
Listen for timing, all down strumming
e||-------------------------------------------------|
B|--------------------------------------------------|
G|--------------------------------------------------|
D|-4---2---7---7------------------------------------|
A|-4---2---7---7------------------------------------|
E|-2---0---5---9------------------------------------|
   X8   x8   x8  x16

INTERLUDE SOLO (listen for note changes)
e||-9—7/-12--7-9--------------------------------------------------|
B|----------------7—9 bend this note slowly then release to –7----|
G|----------------------------------------------------------------|
D|----------------------------------------------------------------|
A|----------------------------------------------------------------|
E|----------------------------------------------------------------|

OUTRO 3:20
Play part 2 of chorus with Solo 1, 1:50 in the song
            

comments powered by Disqus
↑ Back to top | Feeder Tabs for Burn The Bridges. Lyrics for acoustic guitar and electric guitar. Tablatures and chords are parodies/interpretations of the original songs. You may use it for private study, scholarship, research or language learning purposes only