>
 >
Burn The Bridges 1

Burn The Bridges 1 Guitar Tabs

Feeder - Burn The Bridges 1 chords, tabs, tablatures, lyrics

Guitar lessons | Add/correct | Request | Top 50 tabs Artists:  A B C D E F G H I J K L M N O P Q R S T U V W X Y Z 0-9

Burn The Bridges 1 Guitar Tabs – Feeder

CD, Sheet music, Poster

Do you like Burn The Bridges 1? Share with your friends now
Bass TabsTabsTabs v2Tabs v3
Band: Feeder

standard tuning both guitars


GTR1
capo 2(just for gtr 1, remember!)

notes relative to capo

(10w capo=12 without capo , 8w capo=10 without capo etc)

intro
e|--------------------------------------| x2
B|--------------------------------------|
G|--------------------------------------|
D|--------------------------------------|
A|-101010101010101010101010101010101010-|
E|-8-8-8-8-8-8-8-8-8-0-0-0-0-0-0-0-0-0--|

Verse
e|--------------------------------------| x3
B|--------------------------------------|
G|--------------------------------------|
D|--------------------------------------|
A|-101010101010101010101010101010101010-|
E|-8-8-8-8-8-8-8-8-8-0-0-0-0-0-0-0-0-0--|

Pre-Chorus
e|------------------------------|
B|------------------------------|
G|------------------------------|
D|------------------------------|
A|-777777777-101010101010101010-|
E|-555555555-8-8-8-8-8-8-8-8-8--|

Verse 2: Repeat Verse
Pre-Chorus 2:Repeat Pre-Chorus twice

Chorus
e|---------------------------------------------------|x2
B|---------------------------------------------------|
G|-555555555----------------------5555x----5x5555-77-|
D|-555555555-555555555-777777777--5555x-55-5x5555-77-|
A|-333333333-555555555-777777777--3333x-55-3x3333-55-|
E|-----------333333333-555555555--------33-----------|

Repeat Intro
Verse 3: Repeat Verse

Pre-Chorus 3:
e|------------------------------|
B|------------------------------|
G|------------------------------|
D|-777777777-101010101010101010-|
A|-777777777-101010101010101010-|
E|-555555555-8-8-8-8-8-8-8-8-8--|

Verse 4: Repeat Verse
Pre-Chorus 4: Repeat Pre-Chorus 3 twice
Chorus 2: repeat Chorus 

Bridge:(gtr 2 comes in before the end of chorus)
e|--------------------|------------------------------------|
B|--------------------|------------------------------------|
G|-5555x----5x5555-77-|-999999-777777-555555--------555555-|
D|-5555x-55-5x5555-77-|-999999-777777-555555-777777-555555-|
A|-3333x-55-3x3333-55-|-777777-555555-333333-777777-333333-|
E|-------33-----------|----------------------555555--------|

e|---------------------------------------------|
B|---------------------------------------------|
G|-999999-777777-555555--------5555----5555----|
D|-999999-777777-555555-777777-5555-7b-5555-7b-|
A|-777777-555555-333333-777777-3333----3333----|
E|----------------------555555-----------------|

Repeat Intro
Verse 5:Repeat Verse
Pre-Chorus 5:Repeat Pre-Chorus
Verse 6:Repeat Verse
Pre-Chorus 6: Repeat Pre-Chorus twice

Link To Chorus 3
e|------------|
B|------------|
G|-------5555-|
D|-5555555555-|
A|-3333333333-|
E|------------|
   PPPPPPPP slowly release the palm mute

Chorus 3
e|-----------------------------------------|
B|-----------------------------------------|
G|----------------------5555x----5x5555-77-|
D|-555555555-777777777--5555x-55-5x5555-77-|
A|-555555555-777777777--3333x-55-3x3333-55-|
E|-333333333-555555555--------33-----------|

e|---------------------------------------------------|x2
B|---------------------------------------------------|
G|-555555555----------------------5555x----5x5555-77-|
D|-555555555-555555555-777777777--5555x-55-5x5555-77-|
A|-333333333-555555555-777777777--3333x-55-3x3333-55-|
E|-----------333333333-555555555--------33-----------|

Outro:
e|--------------------|----------|
B|--------------------|----------|
G|-5555x----5x5555-77-|--------5-|
D|-5555x-55-5x5555-77-|-end on-5-|
A|-3333x-55-3x3333-55-|--------3-|
E|-------33-----------|----------|
_____________________________________________________________

GTR2


1st Solo (end of 2nd chorus)

e|-------------------------------------------|x2
B|-------------------------------------------|
G|-/14-14-14-13-13-13-11-11-11-9-9-9-7-7-6-6-|
D|-------------------------------------------|
A|-------------------------------------------|
E|-------------------------------------------|

(not the exact amount here)
e|-------------------------------------------------------------------------|
B|----------------17-17----------------------------------------------------|
G|-18-18-18\16-16-------16-16/18\11-11-11-11-11-11-11/13b-13b-13b-13b-13b/-|
D|-------------------------------------------------------------------------|
A|-------------------------------------------------------------------------|
E|-------------------------------------------------------------------------|

e|------------------------------------------------------------------------|
B|----------------17-17---------------------------------------------------|
G|-18-18-18\16-16-------16-16/18\11-11-11-11-11-11-11/13b-13b-13b-13b-13b-|
D|--------------------------------------------------------------and so on-|
A|------------------------------------------------------------------------|
E|------------------------------------------------------------------------|

2nd Solo (end of the song)

e|-------------------------------------------|
B|-------------------------------------------|
G|-/14-14-14-13-13-13-11-11-11-9-9-9-7-7-6-6-|
D|-------------------------------------------|
A|-------------------------------------------|
E|-------------------------------------------|

e|---------------------------------------------|
B|---------------------------------------------|
G|-/14-14-14-13-13-13-11-11-11-9-9-9-7-7-6-6-7-|
D|---------------------------------------------|
A|---------------------------------------------|
E|---------------------------------------------|

there's a third (and misterious lol) guitar that 
plays this during the last part of the final solo:

e|-----------------------------------------------|
B|-----------------------------------------------|
G|-/19-19-19-18-18-18-16-16-16-12-12-12-11-11-12-|
D|-----------------------------------------------|
A|-----------------------------------------------|
E|-----------------------------------------------|

Another great (previously unreleased) song from the new singles album!





Comments


Popular Feeder tabs & chords
Anaesthetic 1 Bass Tabs
Just A Day 2 Bass Tabs
Just A Day 3 Bass Tabs
Feeling A Moment 2 Chords
Yeah Yeah Chords
7 Days In The Sun Tabs
7 Days In The Sun 1 Tabs
Helium Tabs
Save Us Tabs
Circles Ukulele


Song lyrics



↑ Back to top | Tablatures and chords are parodies/interpretations of the original songs. You may use it for private study, scholarship, research or language learning purposes only
© 2014 AZChords.com Contact us | Privacy policy | DMCA | Add/correct tabs | Request tabs | Top 50 tabs