» » »

Corporate Cloning Bass tabs (ver.2)

Artists:  A B C D E F G H I J K L M N O P Q R S T U V W X Y Z # 

Corporate Cloning Bass tabs (ver.2)

Fear Factory
Rating:
0/5 (0 votes)

Hard to play? Try these video lessons and learn fast.
                
CORPORATE CLONING (Bassline)
As recorded by Fear Factory
(From the 2004 Album ARCHETYPE)

	

Words and Music by Fear Factory

Gtr I (B E A D G) - 'Untitled'

   Intro
    Q=94
   4/4
    Gtr I
                                                           |-3-|
    S S S S S S S S S S S S S E.   S S S S S S S S S S S S E E E
||-------------------------------|---------------------------------||
||o------------------------------|--------------------------------o||
||-------------------------------|---------------------------------||
||o------------------------------|--------------------------------o||
||--0-0-0-0-0-0-0-0-0-0-0-0-0----|-0-0-0-0-0-0-0-0-0-0-0-0-1-1-1---||


                                                                      |-3-|
    T T S S S S S S S T T S S S S S S S   T T S S S S S S S T T S S S E E E   3x
||--------------------------------------|-------------------------------------||
||o-------------------------------------|------------------------------------o||
||--------------------------------------|-------------------------------------||
||o-------------------------------------|------------------------------------o||
||--1-1-0-0-0-0-0-0-0-1-1-0-0-0-0-0-0-0-|-1-1-0-0-0-0-0-0-0-1-1-0-0-0-1-1-1---||


  T T S S S T T S S S T T S S S T T S S S
|-----------------------------------------|
|-----------------------------------------|
|-----------------------------------------|
|-----------------------------------------|
|-1-1-0-0-0-1-1-0-0-0-1-1-0-0-0-1-1-0-0-0-|


                                |-3-|
  T T S S S T T S S S T T S S S E E E
|---------------------------------------|
|---------------------------------------|
|---------------------------------------|
|---------------------------------------|
|-1-1-0-0-0-1-1-0-0-0-1-1-0-0-0-1-1-1---|


   Verse 1
                                                                 |-3-|
    T T S S S S S E T T S S S S E.  3x T T S S S S S E T T S S S E E E
||----------------------------------||---------------------------------|
||o--------------------------------o||---------------------------------|
||----------------------------------||---------------------------------|
||o--------------------------------o||---------------------------------|
||--3-3-2-2-2-2-2---3-3-2-2-2-2-2---||-3-3-2-2-2-2-2---3-3-2-2-2-3-3-3-|


                                                                |-3-|
    T T S S S S E. T T S S S S S E  3x T T S S S S E. T T S S S E E E
||----------------------------------||---------------------------------|
||o--------------------------------o||---------------------------------|
||----------------------------------||---------------------------------|
||o--------------------------------o||---------------------------------|
||--3-3-2-2-2-2-2--3-3-2-2-2-2-2----||-3-3-2-2-2-2-2--3-3-2-2-2-3-3-3--|


 Bridge
  S S S S S E. S S S S S E.   S S S S S E. S S S S S S E
|---------------------------|----------------------------|
|---------------------------|----------------------------|
|---------------------------|----------------------------|
|---------------------------|----------------------------|
|-3-2-2-2-2-3--2-5-5-5-3-6--|-3-2-2-2-2-3--2-5-5-5-3-6---|


   Verse 2 & 3
    $
                                                                 |-3-|
    T T S S S S S E T T S S S S E.  3x T T S S S S S E T T S S S E E E
||----------------------------------||---------------------------------|
||o--------------------------------o||---------------------------------|
||----------------------------------||---------------------------------|
||o--------------------------------o||---------------------------------|
||--3-3-2-2-2-2-2---3-3-2-2-2-2-2---||-3-3-2-2-2-2-2---3-3-2-2-2-3-3-3-|


                                                                   |-3-|
    T T S S S S E. T T S S S S S E  3x T T S S S S S S S T T S S S E E E
||----------------------------------||-----------------------------------|
||o--------------------------------o||-----------------------------------|
||----------------------------------||-----------------------------------|
||o--------------------------------o||-----------------------------------|
||--3-3-2-2-2-2-2--3-3-2-2-2-2-2----||-3-3-2-2-2-2-2-2-2-3-3-2-2-2-3-3-3-|


   Bridge
    S S S S S E. S S S S S E.   S S S S S E. S S S S S E.
||----------------------------|----------------------------||
||o---------------------------|---------------------------o||
||----------------------------|----------------------------||
||o---------------------------|---------------------------o||
||--3-2-2-2-2-3--2-5-5-5-3-6--|-3-2-2-2-2-3--2-5-5-5-3-6---||


   Chorus 1 & 2
    T T T T T T T T E T T T T T T T T T T T T E E   Q.   E +E  E Q   3x
||------------------------------------------------|------------------||
||o-----------------------------------------------|-----------------o||
||------------------------------------------------|------------------||
||o-----------------5-------------------------5-0-|-1----3-(3)-3-3--o||
||--3-3-3-3-3-3-3-3---3-3-3-3-3-3-3-3-3-3-3-3-----|------------------||


                                                          To Coda
  T T T T T T T T E T T T T T T T T T T T T E E   Q.   E +E  E Q
|-----------------------------------------------|------------------|
|-----------------------------------------------|------------------|
|-----------------------------------------------|------------------|
|-----------------5-------------------------5-0-|-1----3-(3)-3-3---|
|-3-3-3-3-3-3-3-3---3-3-3-3-3-3-3-3-3-3-3-3-----|------------------|


   Interlude
                                                           |-3-|
    S S S S S S S S S S S S S E.   S S S S S S S S S S S S E E E
||-------------------------------|--------------------------------||
||o------------------------------|-------------------------------o||
||-------------------------------|--------------------------------||
||o------------------------------|-------------------------------o||
||--0-0-0-0-0-0-0-0-0-0-0-0-0----|-0-0-0-0-0-0-0-0-0-0-0-0-1-1-1--||


                                                                    |-3-|
  T T S S S S S S S T T S S S S S S S   T T S S S S S S S T T S S S E E E
|-------------------------------------|-----------------------------------|
|-------------------------------------|-----------------------------------|
|-------------------------------------|-----------------------------------|
|-------------------------------------|-----------------------------------|
|-1-1-0-0-0-0-0-0-0-1-1-0-0-0-0-0-0-0-|-1-1-0-0-0-0-0-0-0-1-1-0-0-0-1-1-1-|


                                                            D.S. al Coda
                                                                    |-3-|
  T T S S S S S S S T T S S S S S S S   T T S S S S S S S T T S S S E E E
|-------------------------------------|-----------------------------------|
|-------------------------------------|-----------------------------------|
|-------------------------------------|-----------------------------------|
|-------------------------------------|-----------------------------------|
|-1-1-0-0-0-0-0-0-0-1-1-0-0-0-0-0-0-0-|-1-1-0-0-0-0-0-0-0-1-1-0-0-0-1-1-1-|


  &
  Q.   E +E  E Q    Q.   E +E  E Q    Q.   E +E  E Q
|-----------------|-----------------|-----------------|
|-----------------|-----------------|-----------------|
|-----------------|-----------------|-----------------|
|-1----3-(3)-3-3--|-1----3-(3)-3-3--|-1----3-(3)-3-3--|
|-----------------|-----------------|-----------------|


   Breakdown
    S S S S S S S S S S S S S S S S   S S S S S S S S S S S S S S S S
||----------------------------------|---------------------------------|
||o---------------------------------|---------------------------------|
||----------------------------------|---------------------------------|
||o-3-2-0-3-4-0-3-2-0-3-4-0-3-2-3-4-|-3-2-0-3-4-0-3-2-0-3-4-0-3-3-3-3-|
||----------------------------------|---------------------------------|


  S S S S S S S S S S S S S S S S
|---------------------------------|
|---------------------------------|
|---------------------------------|
|-3-2-0-3-4-0-3-2-0-3-4-0-3-2-3-4-|
|---------------------------------|


                                     2/4
                                              |-3-|
  S S S S S S S S S S S S S S S S     S S S S E E E
|----------------------------------||----------------|
|---------------------------------o||----------------|
|----------------------------------||----------------|
|-3-2-0-3-4-0-3-2-3-3-3-3-3-3-3-3-o||-2-2-2-2-0-0-0--|
|----------------------------------||----------------|


   Chorus 3
   4/4
    T T T T T T T T E T T T T T T T T T T T T E E   Q.   E +E  E Q   8x
||------------------------------------------------|------------------||
||o-----------------------------------------------|-----------------o||
||------------------------------------------------|------------------||
||o-----------------5-------------------------5-0-|-1----3-(3)-3-3--o||
||--3-3-3-3-3-3-3-3---3-3-3-3-3-3-3-3-3-3-3-3-----|------------------||


  Q.   E +E  E Q    Q  Q  H      +W
|-----------------|------------|--------*|
|-----------------|------------|--------*|
|-----------------|------------|--------*|
|-1----3-(3)-3-3--|-1--1--3----|-(3)----*|
|-----------------|------------|--------*|



Duration Legend
---------------
W - whole; H - half; Q - quarter; E - 8th; S - 16th; T - 32nd; X - 64th; a - acciaccatura
+ - note tied to previous; . - note dotted; .. - note double dotted
Uncapitalized letters represent notes that are staccato (1/2 duration)
Irregular groupings are notated above the duration line
Duration letters will always appear directly above the note/fret number it represents the
duration for.  Duration letters with no fret number below them represent rests.  Multi-
bar rests are notated in the form Wxn, where n is the number of bars to rest for.  Low
melody durations appear below the staff

Tablature Legend
----------------
 h   - hammer-on
 p   - pull-off
 b   - bend
 pb  - pre-bend
 r   - bend release (if no number after the r, then release immediately)
 /\  - slide into or out of (from/to "nowhere")
 s   - legato slide
 S   - shift slide
 - natural harmonic
[n]  - artificial harmonic
n(n) - tapped harmonic
 ~   - vibrato
 tr  - trill
 T   - tap
 TP  - trem. picking
 PM  - palm muting
\n/  - tremolo bar dip; n = amount to dip
 \n  - tremolo bar down
 n/  - tremolo bar up
/n\  - tremolo bar inverted dip
 =   - hold bend; also acts as connecting device for hammers/pulls
 <> - volume swell (louder/softer)
 x   - on rhythm slash represents muted slash
 o   - on rhythm slash represents single note slash

Misc Legend
-----------
 |  - bar
||  - double bar
||o - repeat start
o|| - repeat end
*|  - double bar (ending)
 :  - bar (freetime)
 $  - Segno
 &  - Coda
Tempo markers -  = BPM(8/16=s8/s16), where s8 = swing 8ths, s16 = swing 16ths
            
Hard to play? Try these video lessons and learn fast. | Correct




comments powered by Disqus
↑ Back to top | Tablatures and chords are parodies/interpretations of the original songs. You may use it for private study, scholarship, research or language learning purposes only