» » »

Corporate Cloning Tabs (ver.1)

Artists:  A B C D E F G H I J K L M N O P Q R S T U V W X Y Z # 

Corporate Cloning Tabs (ver.1)

Fear Factory
Rating:
5/5 (1 vote)

Hard to play? Try these video lessons and learn fast.
                
CORPORATE CLONING
As recorded by Fear Factory
(From the 2004 Album ARCHETYPE)

        

Words and Music by Fear Factory

Gtr I (B E A D G B E) - 'Untitled'

   Intro
    Q=94
    B5                                                     C5
   4/4
    Gtr I
    PM---------------------------------------------------------|
                                                           |-3-|
    S S S S S S S S S S S S S E.   S S S S S S S S S S S S E E E
||-------------------------------|---------------------------------||
||-------------------------------|---------------------------------||
||o------------------------------|--------------------------------o||
||-------------------------------|---------------------------------||
||o------------------------------|--------------------------------o||
||--2-2-2-2-2-2-2-2-2-2-2-2-2----|-2-2-2-2-2-2-2-2-2-2-2-2-3-3-3---||
||--0-0-0-0-0-0-0-0-0-0-0-0-0----|-0-0-0-0-0-0-0-0-0-0-0-0-1-1-1---||


    N.C.
    PM--------------------------------------------------------------------|
                                                                      |-3-|
    T T S S S S S S S T T S S S S S S S   T T S S S S S S S T T S S S E E E   3x
||--------------------------------------|-------------------------------------||
||--------------------------------------|-------------------------------------||
||o-------------------------------------|------------------------------------o||
||--------------------------------------|-------------------------------------||
||o-------------------------------------|------------------------------------o||
||--------------------------------------|-------------------------------------||
||--1-1-0-0-0-0-0-0-0-1-1-0-0-0-0-0-0-0-|-1-1-0-0-0-0-0-0-0-1-1-0-0-0-1-1-1---||


  PM---------------------------------------
  T T S S S T T S S S T T S S S T T S S S
|-----------------------------------------|
|-----------------------------------------|
|-----------------------------------------|
|-----------------------------------------|
|-----------------------------------------|
|-----------------------------------------|
|-1-1-0-0-0-1-1-0-0-0-1-1-0-0-0-1-1-0-0-0-|


 -----------------------------------|
                                |-3-|
  T T S S S T T S S S T T S S S E E E
|---------------------------------------|
|---------------------------------------|
|---------------------------------------|
|---------------------------------------|
|---------------------------------------|
|---------------------------------------|
|-1-1-0-0-0-1-1-0-0-0-1-1-0-0-0-1-1-1---|


   Verse 1
    N.C.
    PM---------------------------------------------------------------|
                                                                 |-3-|
    T T S S S S S E T T S S S S E.  3x T T S S S S S E T T S S S E E E
||----------------------------------||---------------------------------|
||----------------------------------||---------------------------------|
||o--------------------------------o||---------------------------------|
||----------------------------------||---------------------------------|
||o--------------------------------o||---------------------------------|
||----------------------------------||---------------------------------|
||--3-3-2-2-2-2-2---3-3-2-2-2-2-2---||-3-3-2-2-2-2-2---3-3-2-2-2-3-3-3-|


    PM-----------------------------------------------------------------|
                                                                   |-3-|
    T T S S S S E. T T S S S S S E  3x T T S S S S S S S T T S S S E E E
||----------------------------------||-----------------------------------|
||----------------------------------||-----------------------------------|
||o--------------------------------o||-----------------------------------|
||----------------------------------||-----------------------------------|
||o--------------------------------o||-----------------------------------|
||----------------------------------||-----------------------------------|
||--3-3-2-2-2-2-2--3-3-2-2-2-2-2----||-3-3-2-2-2-2-2-2-2-3-3-2-2-2-3-3-3-|


 Bridge
  D5C#5     D5 C#E5    D5F5   D5C#5     D5 C#E5    D5F5
  S S S S S E. S S S S S E.   S S S S S E. S S S S S S E
|---------------------------|----------------------------|
|---------------------------|----------------------------|
|---------------------------|----------------------------|
|---------------------------|----------------------------|
|-5-4-4-4-4-5--4-7-7-7-5-8--|-5-4-4-4-4-5--4-7-7-7-5-8---|
|-5-4-4-4-4-5--4-7-7-7-5-8--|-5-4-4-4-4-5--4-7-7-7-5-8---|
|-3-2-2-2-2-3--2-5-5-5-3-6--|-3-2-2-2-2-3--2-5-5-5-3-6---|


   Verse 2 & 3
    $
    N.C.
    PM---------------------------------------------------------------|
                                                                 |-3-|
    T T S S S S S E T T S S S S E.  3x T T S S S S S E T T S S S E E E
||----------------------------------||---------------------------------|
||----------------------------------||---------------------------------|
||o--------------------------------o||---------------------------------|
||----------------------------------||---------------------------------|
||o--------------------------------o||---------------------------------|
||----------------------------------||---------------------------------|
||--3-3-2-2-2-2-2---3-3-2-2-2-2-2---||-3-3-2-2-2-2-2---3-3-2-2-2-3-3-3-|


    PM-----------------------------------------------------------------|
                                                                   |-3-|
    T T S S S S E. T T S S S S S E  3x T T S S S S S S S T T S S S E E E
||----------------------------------||-----------------------------------|
||----------------------------------||-----------------------------------|
||o--------------------------------o||-----------------------------------|
||----------------------------------||-----------------------------------|
||o--------------------------------o||-----------------------------------|
||----------------------------------||-----------------------------------|
||--3-3-2-2-2-2-2--3-3-2-2-2-2-2----||-3-3-2-2-2-2-2-2-2-3-3-2-2-2-3-3-3-|


   Bridge
    D5C#5     D5 C#E5    D5F5   D5C#5     D5 C#E5    D5F5
    S S S S S E. S S S S S E.   S S S S S E. S S S S S E.
||----------------------------|----------------------------||
||----------------------------|----------------------------||
||o---------------------------|---------------------------o||
||----------------------------|----------------------------||
||o-5-4-4-4-4-5--4-7-7-7-5-8--|-5-4-4-4-4-5--4-7-7-7-5-8--o||
||--5-4-4-4-4-5--4-7-7-7-5-8--|-5-4-4-4-4-5--4-7-7-7-5-8---||
||--3-2-2-2-2-3--2-5-5-5-3-6--|-3-2-2-2-2-3--2-5-5-5-3-6---||


   Chorus 1 & 2
    N.C.            A5N.C.                    A5E5  F5   G5
    PM------------|   PM--------------------|
    T T T T T T T T E T T T T T T T T T T T T E E   Q.   E +E  E Q
||------------------------------------------------|-----------------|
||------------------------------------------------|-----------------|
||o-----------------------------------------------|-----------------|
||------------------7-------------------------7-2-|-3----5-(5)-5-5--|
||o-----------------7-------------------------7-2-|-3----5-(5)-5-5--|
||------------------5-------------------------5-0-|-1----3-(3)-3-3--|
||--3-3-3-3-3-3-3-3---3-3-3-3-3-3-3-3-3-3-3-3-----|-----------------|


                                                          To Coda
  N.C.            A5N.C.                    A5E5  F5   G5
  PM------------|   PM--------------------|
  T T T T T T T T E T T T T T T T T T T T T E E   Q  E E +E  E Q
|-----------------------------------------------|-------------------||
|-----------------------------------------------|-------------------||
|-----------------------------------------------|----0---------0---o||
|-----------------7-------------------------7-2-|-3----5-(5)-5------||
|-----------------7-------------------------7-2-|-3----5-(5)-5-----o||
|-----------------5-------------------------5-0-|-1----3-(3)-3------||
|-3-3-3-3-3-3-3-3---3-3-3-3-3-3-3-3-3-3-3-3-----|-------------------||


   Interlude
    B5                                                     C5
    Gtr I
    PM---------------------------------------------------------|
                                                           |-3-|
    S S S S S S S S S S S S S E.   S S S S S S S S S S S S E E E
||-------------------------------|--------------------------------||
||-------------------------------|--------------------------------||
||o------------------------------|-------------------------------o||
||-------------------------------|--------------------------------||
||o------------------------------|-------------------------------o||
||--2-2-2-2-2-2-2-2-2-2-2-2-2----|-2-2-2-2-2-2-2-2-2-2-2-2-3-3-3--||
||--0-0-0-0-0-0-0-0-0-0-0-0-0----|-0-0-0-0-0-0-0-0-0-0-0-0-1-1-1--||


  N.C.
  PM--------------------------------------------------------------------|
                                                                    |-3-|
  T T S S S S S S S T T S S S S S S S   T T S S S S S S S T T S S S E E E
|-------------------------------------|-----------------------------------|
|-------------------------------------|-----------------------------------|
|-------------------------------------|-----------------------------------|
|-------------------------------------|-----------------------------------|
|-------------------------------------|-----------------------------------|
|-------------------------------------|-----------------------------------|
|-1-1-0-0-0-0-0-0-0-1-1-0-0-0-0-0-0-0-|-1-1-0-0-0-0-0-0-0-1-1-0-0-0-1-1-1-|


                                                            D.S. al Coda
  PM--------------------------------------------------------------------|
                                                                    |-3-|
  T T S S S S S S S T T S S S S S S S   T T S S S S S S S T T S S S E E E
|-------------------------------------|-----------------------------------|
|-------------------------------------|-----------------------------------|
|-------------------------------------|-----------------------------------|
|-------------------------------------|-----------------------------------|
|-------------------------------------|-----------------------------------|
|-------------------------------------|-----------------------------------|
|-1-1-0-0-0-0-0-0-0-1-1-0-0-0-0-0-0-0-|-1-1-0-0-0-0-0-0-0-1-1-0-0-0-1-1-1-|


  &
  F5   G5           F5   G5           F5   G5
  Q  E E +E  E Q    Q  E E +E  E Q    Q  E E +E  E Q
|-----------------|-----------------|-----------------|
|-----------------|-----------------|-----------------|
|----0---------0--|----0---------0--|----0---------0--|
|-3----5-(5)-5----|-3----5-(5)-5----|-3----5-(5)-5----|
|-3----5-(5)-5----|-3----5-(5)-5----|-3----5-(5)-5----|
|-1----3-(3)-3----|-1----3-(3)-3----|-1----3-(3)-3----|
|-----------------|-----------------|-----------------|


 Breakdown
  N.C.
                     PM----|                   PM------------|
  W          H.      S S S S   W          H    S S S S S S S S
|----------|-----------------|----------|----------------------|
|----------|-----------------|----------|----------------------|
|----------|-----------------|----------|----------------------|
|----------|-----------------|----------|----------------------|
|----------|-----------------|----------|----------------------|
|----------|---------3-3-3-3-|----------|------3-3-3-3-3-3-3-3-|
|----------|-----------------|----------|----------------------|


  G5F#5 G5G#5 G5F#5 G5G#5 G5F#G5G#5 G5F#5 G5G#5 G5F#5 G5G#5 G5
                                                            PM----|
  S S S S S S S S S S S S S S S S   S S S S S S S S S S S S S S S S
|---------------------------------|---------------------------------|
|---------------------------------|---------------------------------|
|---------------------------------|---------------------------------|
|---------------------------------|---------------------------------|
|-5s4---5s6---5s4---5s6---5s4-5s6-|-5s4---5s6---5s4---5s6---5-5-5-5-|
|-3s2-0-3s4-0-3s2-0-3s4-0-3s2-3s4-|-3s2-0-3s4-0-3s2-0-3s4-0-3-3-3-3-|
|---------------------------------|---------------------------------|


  G5F#5 G5G#5 G5G#5 G5G#5 G5F#G5G#5
  S S S S S S S S S S S S S S S S
|---------------------------------|
|---------------------------------|
|---------------------------------|
|---------------------------------|
|-5s4---5s6---5s4---5s6---5s4-5s6-|
|-3s2-0-3s4-0-3s2-0-3s4-0-3s2-3s4-|
|---------------------------------|


  G5F#5 G5G#5 G5F#G5                F#5     E5
                                   2/4
                  PM----------------------------|
                                            |-3-|
  S S S S S S S S S S S S S S S S   S S S S E E E
|---------------------------------|----------------|
|---------------------------------|----------------|
|---------------------------------|----------------|
|---------------------------------|----------------|
|-5s4---5s6---5s4-5-5-5-5-5-5-5-5-|-4-4-4-4-2-2-2--|
|-3s2-0-3s4-0-3s2-3-3-3-3-3-3-3-3-|-2-2-2-2-0-0-0--|
|---------------------------------|----------------|


   Chorus 3
    N.C.            A5N.C.                    A5E5  F5   G5
   4/4
    PM------------|   PM--------------------|
    T T T T T T T T E T T T T T T T T T T T T E E   Q.   E +E  E Q
||------------------------------------------------|-----------------|
||------------------------------------------------|-----------------|
||o-----------------------------------------------|-----------------|
||------------------7-------------------------7-2-|-3----5-(5)-5-5--|
||o-----------------7-------------------------7-2-|-3----5-(5)-5-5--|
||------------------5-------------------------5-0-|-1----3-(3)-3-3--|
||--3-3-3-3-3-3-3-3---3-3-3-3-3-3-3-3-3-3-3-3-----|-----------------|


  N.C.            A5N.C.                    A5E5  F5   G5
  PM------------|   PM--------------------|
  T T T T T T T T E T T T T T T T T T T T T E E   Q  E E +E  E Q
|-----------------------------------------------|-----------------||
|-----------------------------------------------|-----------------||
|-----------------------------------------------|----0---------0-o||
|-----------------7-------------------------7-2-|-3----5-(5)-5----||
|-----------------7-------------------------7-2-|-3----5-(5)-5---o||
|-----------------5-------------------------5-0-|-1----3-(3)-3----||
|-3-3-3-3-3-3-3-3---3-3-3-3-3-3-3-3-3-3-3-3-----|-----------------||


    N.C.            A5N.C.                    A5E5  F5   G5
    PM------------|   PM--------------------|
    T T T T T T T T E T T T T T T T T T T T T E E   Q  E E +E  E Q   4x
||------------------------------------------------|------------------||
||------------------------------------------------|------------------||
||o-----------------------------------------------|----0---------0--o||
||------------------7-------------------------7-2-|-3----5-(5)-5-----||
||o-----------------7-------------------------7-2-|-3----5-(5)-5----o||
||------------------5-------------------------5-0-|-1----3-(3)-3-----||
||--3-3-3-3-3-3-3-3---3-3-3-3-3-3-3-3-3-3-3-3-----|------------------||


  F5   G5           F5    G5
  Q  E E +E  E Q    Q  Q  H      +W
|-----------------|------------|--------*|
|-----------------|------------|--------*|
|----0---------0--|-------0----|-(0)----*|
|-3----5-(5)-5----|-3--3--5----|-(5)----*|
|-3----5-(5)-5----|-3--3--5----|-(5)----*|
|-1----3-(3)-3----|-1--1--3----|-(3)----*|
|-----------------|------------|--------*|



Duration Legend
---------------
W - whole; H - half; Q - quarter; E - 8th; S - 16th; T - 32nd; X - 64th; a - acciaccatura
+ - note tied to previous; . - note dotted; .. - note double dotted
Uncapitalized letters represent notes that are staccato (1/2 duration)
Irregular groupings are notated above the duration line
Duration letters will always appear directly above the note/fret number it represents the
duration for.  Duration letters with no fret number below them represent rests.  Multi-
bar rests are notated in the form Wxn, where n is the number of bars to rest for.  Low
melody durations appear below the staff

Tablature Legend
----------------
 h   - hammer-on
 p   - pull-off
 b   - bend
 pb  - pre-bend
 r   - bend release (if no number after the r, then release immediately)
 /\  - slide into or out of (from/to "nowhere")
 s   - legato slide
 S   - shift slide
 - natural harmonic
[n]  - artificial harmonic
n(n) - tapped harmonic
 ~   - vibrato
 tr  - trill
 T   - tap
 TP  - trem. picking
 PM  - palm muting
\n/  - tremolo bar dip; n = amount to dip
 \n  - tremolo bar down
 n/  - tremolo bar up
/n\  - tremolo bar inverted dip
 =   - hold bend; also acts as connecting device for hammers/pulls
 <> - volume swell (louder/softer)
 x   - on rhythm slash represents muted slash
 o   - on rhythm slash represents single note slash

Misc Legend
-----------
 |  - bar
||  - double bar
||o - repeat start
o|| - repeat end
*|  - double bar (ending)
 :  - bar (freetime)
 $  - Segno
 &  - Coda
Tempo markers -  = BPM(8/16=s8/s16), where s8 = swing 8ths, s16 = swing 16ths
            
Hard to play? Try these video lessons and learn fast. | Correct




comments powered by Disqus
↑ Back to top | Tablatures and chords are parodies/interpretations of the original songs. You may use it for private study, scholarship, research or language learning purposes only