» » »

Fear Factory, Body Hammer Tabs (ver.2)

Artists:  A B C D E F G H I J K L M N O P Q R S T U V W X Y Z # 

Body Hammer Tabs (ver.2)

Fear Factory Tabs
Rating:
2/5 (1 vote)
Hard to play? Try these video lessons and learn fast.
                
BODY HAMMER
As recorded by Fear Factory
(From the 1995 Album DEMANUFACTURE)

        

Words by Burton C Bell Music by Fear Factory

Gtr I (E A D G B E) - 'Guitar (Dino)'

   Intro (Main Riff)
    Q=158
    G5    Bb5         G5  Bb5 C#D5C5
   4/4
    Gtr I
    E E E E E E E E   E E E E E E Q
||------------------|----------------|
||o-----------------|----------------|
||------------------|----------------|
||--------3---------|-----3---6-7-5--|
||o-5-----1---------|-5---1---4-5-3--|
||--3-0-0---0-0-0-0-|-3-0---0--------|


  G5    Bb5   G5
                    PM----------------|
  E E E E E E E E   E E E E E E S S S S    4x
|-----------------|------------------------||
|-----------------|-----------------------o||
|-----------------|------------------------||
|-------3---------|------------------------||
|-5-----1-----5---|-----------------------o||
|-3-0-0---0-0-3-0-|-0-0-0-0-0-0-0-0-0-0----||


  E5                G5    Bb5         G5  Bb5 C#D5C5   G5    Bb5   G5
  E E E E E E E E   E E E E E E E E   E E E E E E Q    E E E E E E E E
|-----------------|-----------------|----------------|-----------------|
|-----------------|-----------------|----------------|-----------------|
|-----------------|-----------------|----------------|-----------------|
|-2-2-2-2-2-2-2-2-|-------3---------|-----3---6-7-5--|-------3---------|
|-2-2-2-2-2-2-2-2-|-5-----1---------|-5---1---4-5-3--|-5-----1-----5---|
|-0-0-0-0-0-0-0-0-|-3-0-0---0-0-0-0-|-3-0---0--------|-3-0-0---0-0-3-0-|


                          G5    Bb5
    PM----------------|
    E E E E E E S S S S   E E E E E E E E
||----------------------|-----------------|
||o---------------------|-----------------|
||----------------------|-----------------|
||----------------------|-------3---------|
||o---------------------|-5-----1---------|
||--0-0-0-0-0-0-0-0-0-0-|-3-0-0---0-0-0-0-|


  G5  Bb5 C#D5C5   G5    Bb5   G5
  E E E E E E Q    E E E E E E E E   3x
|----------------|-------------------||
|----------------|------------------o||
|----------------|-------------------||
|-----3---6-7-5--|-------3-----------||
|-5---1---4-5-3--|-5-----1-----5----o||
|-3-0---0--------|-3-0-0---0-0-3-0---||


                        G5    Bb5         G5  Bb5 C#D5C5   G5    Bb5   G5
  PM----------------|
  E E E E E E S S S S   E E E E E E E E   E E E E E E Q    E E E E E E E E
|---------------------|-----------------|----------------|-------------------|
|---------------------|-----------------|----------------|-------------------|
|---------------------|-----------------|----------------|-------------------|
|---------------------|-------3---------|-----3---6-7-5--|-------3-----------|
|---------------------|-5-----1---------|-5---1---4-5-3--|-5-----1-----5-----|
|-0-0-0-0-3-0-0-0-0-0-|-3-0-0---0-0-0-0-|-3-0---0--------|-3-0-0---0-0-3-0---|


                        G5    Bb5         G5  Bb5 C#D5C5   G5    Bb5   G5
  PM----------------|
  E E E E E E S S S S   E E E E E E E E   E E E E E E Q    E E E E E E E E
|---------------------|-----------------|----------------|-------------------|
|---------------------|-----------------|----------------|-------------------|
|---------------------|-----------------|----------------|-------------------|
|---------------------|-------3---------|-----3---6-7-5--|-------3-----------|
|---------------------|-5-----1---------|-5---1---4-5-3--|-5-----1-----5-----|
|-0-0-0-0-0-0-0-0-0-0-|-3-0-0---0-0-0-0-|-3-0---0--------|-3-0-0---0-0-3-0---|


                        A5    C5          A5  C5  D#E5D5   A5    C5    A5
  PM----------------|
  E E E E E E S S S S   E E E E E E E E   E E E E E E Q    E E E E E E E E
|---------------------|-----------------|----------------|-------------------|
|---------------------|-----------------|----------------|-------------------|
|---------------------|-----------------|---------3-4----|-------------------|
|---------------------|-2-----5---------|-2---5---1-2-7--|-2-----5-----2-----|
|---------------------|-0-----3---------|-0---3-------5--|-0-----3-----0-----|
|-0-0-0-0-0-0-0-0-0-0-|---2-2---2-2-2-2-|---2---2--------|---2-2---2-2---2---|


                                    G5    Bb5         G5  Bb5 C#D5C5
  S S S S S S S S S S S S S S S S   E E E E E E E E   E E E E E E Q
|---------------------------------|-----------------|-----------------|
|---------------------------------|-----------------|-----------------|
|---------------------------------|-----------------|-----------------|
|---------------------------------|-------3---------|-----3---6-7-5---|
|---------------------------------|-5-----1---------|-5---1---4-5-3---|
|-2-2-2-2-2-2-2-2-2-2-2-2-2-2-2-2-|-3-0-0---0-0-0-0-|-3-0---0---------|


  G5    Bb5   G5                                      E5   Bb5
                    PM----------------------------|
  E E E E E E E E   S S S S S S S S S S S S S S S S   H    H
|-----------------|---------------------------------|-----------|
|-----------------|---------------------------------|-----------|
|-----------------|---------------------------------|-----------|
|-------3---------|---------------------------------|------3----|
|-5-----1-----5---|---------------------------------|-2----1----|
|-3-0-0---0-0-3-0-|-0-0-0-0-0-0-0-0-0-0-0-0-0-0-0-0-|-0---------|


  E5 Bb5A5BbG5   E5   Bb5      G5  C5            E5   Bb5
  Q  Q  E E Q    H    Q  +S  S E   Q  Q  Q  Q    H    H
|--------------|-----------------|-------------|-----------|
|--------------|-----------------|-------------|-----------|
|--------------|-----------------|-------------|-----------|
|----3--2-3----|------3--(3)-----|-5--5--5--5--|------3----|
|-2--1--0-1-5--|-2----1--(1)---5-|-3--3--3--3--|-2----1----|
|-0---------3--|-0-------------3-|-------------|-0---------|


  E5 Bb5A5BbG5   E5   Bb5      G5  C5
  Q  Q  E E Q    H    Q  +S  S E   Q  Q  Q  Q
|--------------|-----------------|-------------|
|--------------|-----------------|-------------|
|--------------|-----------------|-------------|
|----3--2-3----|------3--(3)-----|-5--5--5--5--|
|-2--1--0-1-5--|-2----1--(1)---5-|-3--3--3--3--|
|-0---------3--|-0-------------3-|-------------|


                                G5    Bb5         G5  Bb5 C#D5C5
  PM------------------------|
  S S S S S S S S S S S S E E   E E E E E E E E   E E E E E E Q
|-----------------------------|-----------------|-----------------|
|-----------------------------|-----------------|-----------------|
|-----------------------------|-----------------|-----------------|
|-----------------------------|-------3---------|-----3---6-7-5---|
|-----------------------------|-5-----1---------|-5---1---4-5-3---|
|-0-0-0-0-0-0-0-0-0-0-0-0-0-0-|-3-0-0---0-0-0-0-|-3-0---0---------|


  G5    Bb5   G5                          G5    Bb5         G5  Bb5 C#D5C5
                    PM----------------|
  E E E E E E E E   E E E E E E S S S S   E E E E E E E E   E E E E E E Q
|-----------------|---------------------|-----------------|------------------|
|-----------------|---------------------|-----------------|------------------|
|-----------------|---------------------|-----------------|------------------|
|-------3---------|---------------------|-------3---------|-----3---6-7-5----|
|-5-----1-----5---|---------------------|-5-----1---------|-5---1---4-5-3----|
|-3-0-0---0-0-3-0-|-0-0-0-0-0-0-0-0-0-0-|-3-0-0---0-0-0-0-|-3-0---0----------|


  G5    Bb5   G5              G5    Bb5         G5  Bb5 C#D5C5
  E E E E E E Q    W          E E E E E E E E   E E E E E E Q
|----------------|----------|-----------------|----------------|
|----------------|----------|-----------------|----------------|
|----------------|----------|-----------------|----------------|
|-------3--------|----------|-------3---------|-----3---6-7-5--|
|-5-----1-----5--|----------|-5-----1---------|-5---1---4-5-3--|
|-3-0-0---0-0-3--|----------|-3-0-0---0-0-0-0-|-3-0---0--------|


  G5    Bb5   G5                          G5    Bb5         G5  Bb5 C#D5C5
                    PM----------------|
  E E E E E E E E   E E E E E E S S S S   E E E E E E E E   E E E E E E Q
|-----------------|---------------------|-----------------|------------------|
|-----------------|---------------------|-----------------|------------------|
|-----------------|---------------------|-----------------|------------------|
|-------3---------|---------------------|-------3---------|-----3---6-7-5----|
|-5-----1-----5---|---------------------|-5-----1---------|-5---1---4-5-3----|
|-3-0-0---0-0-3-0-|-0-0-0-0-0-0-0-0-0-0-|-3-0-0---0-0-0-0-|-3-0---0----------|


  G5    Bb5   G5                          A5    C5          A5  C5  D#E5D5
                    PM----------------|
  E E E E E E E E   E E E E E E S S S S   E E E E E E E E   E E E E E E Q
|-----------------|---------------------|-----------------|------------------|
|-----------------|---------------------|-----------------|------------------|
|-----------------|---------------------|-----------------|---------3-4-2----|
|-------3---------|---------------------|-2-----5---------|-2---5---1-2-0----|
|-5-----1-----5---|---------------------|-0-----3---------|-0---3------------|
|-3-0-0---0-0-3-0-|-0-0-0-0-0-0-0-0-0-0-|---2-2---2-2-2-2-|---2---2----------|


  A5    C5    A5                                      G5    Bb5
                    PM----------------------------|
  E E E E E E E E   S S S S S S S S S S S S S S S S   E E E E E E E E
|-----------------|---------------------------------|------------------|
|-----------------|---------------------------------|------------------|
|-----------------|---------------------------------|------------------|
|-2-----5-----2---|---------------------------------|-------3----------|
|-0-----3-----0---|---------------------------------|-5-----1----------|
|---2-2---2-2---2-|-2-2-2-2-2-2-2-2-2-2-2-2-2-2-2-2-|-3-0-0---0-0-0-0--|


  G5  Bb5 C#D5C5   G5    Bb5   G5
                                     PM----------------------------|
  E E E E E E Q    E E E E E E E E   S S S S S S S S S S S S S S S S
|----------------|-----------------|----------------------------------|
|----------------|-----------------|----------------------------------|
|----------------|-----------------|----------------------------------|
|-----3---6-7-5--|-------3---------|----------------------------------|
|-5---1---4-5-3--|-5-----1-----5---|----------------------------------|
|-3-0---0--------|-3-0-0---0-0-3-0-|-0-0-0-0-0-0-0-0-0-0-0-0-0-0-0-0--|


  E5   Bb5    E5 Bb5A5BbG5   E5   Bb5      G5  C5
  H    H      Q  Q  E E Q    H    Q  +S  S E   Q  Q  Q  Q
|-----------|--------------|-----------------|-------------|
|-----------|--------------|-----------------|-------------|
|-----------|--------------|-----------------|-------------|
|------3----|----3--2-3----|------3--(3)-----|-5--5--5--5--|
|-2----1----|-2--1--0-1-5--|-2----1--(1)---5-|-3--3--3--3--|
|-0---------|-0---------3--|-0-------------3-|-------------|


  E5   Bb5    E5 Bb5A5BbG5   E5   Bb5      G5  E5       G5
  H    H      Q  Q  E E Q    H    Q  +S  S E   Q  +S  S S S E S S E S S
|-----------|--------------|-----------------|---------------------------|
|-----------|--------------|-----------------|---------------------------|
|-----------|--------------|-----------------|---------------------------|
|------3----|----3--2-3----|------3--(3)-----|---------------------------|
|-2----1----|-2--1--0-1-5--|-2----1--(1)---5-|-2--(2)---5-5-5-5-5-5-5-5--|
|-0---------|-0---------3--|-0-------------3-|-0--(0)---3-3-3-3-3-3-3-3--|


  E5   Bb5    E5 Bb5A5BbG5   E5   Bb5      G5  C5
  H    H      Q  Q  E E Q    H    Q  +S  S E   Q  Q  Q  Q
|-----------|--------------|-----------------|-------------|
|-----------|--------------|-----------------|-------------|
|-----------|--------------|-----------------|-------------|
|------3----|----3--2-3----|------3--(3)-----|-5--5--5--5--|
|-2----1----|-2--1--0-1-5--|-2----1--(1)---5-|-3--3--3--3--|
|-0---------|-0---------3--|-0-------------3-|-------------|


  E5   Bb5    E5 Bb5A5BbG5   E5   Bb5      G5  C5
  H    H      Q  Q  E E Q    H    Q  +S  S E   Q  Q  Q  Q
|-----------|--------------|-----------------|-------------|
|-----------|--------------|-----------------|-------------|
|-----------|--------------|-----------------|-------------|
|------3----|----3--2-3----|------3--(3)-----|-5--5--5--5--|
|-2----1----|-2--1--0-1-5--|-2----1--(1)---5-|-3--3--3--3--|
|-0---------|-0---------3--|-0-------------3-|-------------|


    PM-------------------------------
    S S S S S S S S S S S S S S S S
||----------------------------------|
||o---------------------------------|
||----------------------------------|
||----------------------------------|
||o---------------------------------|
||--0-0-0-0-0-0-0-0-0-0-0-0-0-0-0-0-|


                                          Bb5
 -------------------------------|           PM--------------------|
  S S S S S S S S S S S S S S S S         S S S S S S S S S S S S Q  16x
|----------------------------------||-||------------------------------||
|---------------------------------o||-||o----------------------------o||
|----------------------------------||-||------------------------------||
|----------------------------------||-||--3---------------------------||
|---------------------------------o||-||o-1-1-1-1-1-1-1-1------------o||
|-0-0-0-0-0-0-0-0-0-0-0-0-0-0-0-0--||-||------------------0-0-0-0-0---||


                          G5    Bb5
    PM----------------|
    E E E E E E S S S S   E E E E E E E E
||----------------------|-----------------|
||o---------------------|-----------------|
||----------------------|-----------------|
||----------------------|-------3---------|
||o---------------------|-5-----1---------|
||--3-3-3-3-3-3-3-3-3-3-|-3-0-0---0-0-0-0-|


  G5  Bb5 C#D5C5   G5    Bb5   G5
  E E E E E E Q    E E E E E E E E
|----------------|-------------------||
|----------------|------------------o||
|----------------|-------------------||
|-----3---6-7-5--|-------3-----------||
|-5---1---4-5-3--|-5-----1-----5----o||
|-3-0---0--------|-3-0-0---0-0-3-0---||


                        G5   C5     E5   Bb5    E5 Bb5A5BbG5
  E E E E E E S S S S   H    H      H    H      Q  Q  E E Q
|---------------------|-----------|-----------|----------------|
|---------------------|-----------|-----------|----------------|
|---------------------|-----------|-----------|----------------|
|---------------------|------5----|------3----|----3--2-3------|
|---------------------|-5----3----|-2----1----|-2--1--0-1-5----|
|-0-0-0-0-0-0-0-0-0-0-|-3---------|-0---------|-0---------3----|


  E5   Bb5      G5  C5            E5   Bb5    E5 Bb5A5BbG5
  H    Q  +S  S E   Q  Q  Q  Q    H    H      Q  Q  E E Q
|-----------------|-------------|-----------|--------------|
|-----------------|-------------|-----------|--------------|
|-----------------|-------------|-----------|--------------|
|------3--(3)-----|-5--5--5--5--|------3----|----3--2-3----|
|-2----1--(1)---5-|-3--3--3--3--|-2----1----|-2--1--0-1-5--|
|-0-------------3-|-------------|-0---------|-0---------3--|


  E5   Bb5      G5  E5       G5                E5   Bb5    E5 Bb5A5BbG5
                             PM------------|
  H    Q  +S  S E   Q  +S  S S S E S S E S S   H    H      Q  Q  E E Q
|-----------------|--------------------------|-----------|---------------|
|-----------------|--------------------------|-----------|---------------|
|-----------------|--------------------------|-----------|---------------|
|------3--(3)-----|--------------------------|------3----|----3--2-3-----|
|-2----1--(1)---5-|-2--(2)---5-5-5-5-5-5-5-5-|-2----1----|-2--1--0-1-5---|
|-0-------------3-|-0--(0)---3-3-3-3-3-3-3-3-|-0---------|-0---------3---|


  E5   Bb5      G5  C5            E5   Bb5    E5 Bb5A5BbG5
  H    Q  +S  S E   Q  Q  Q  Q    H    H      Q  Q  E E Q
|-----------------|-------------|-----------|--------------|
|-----------------|-------------|-----------|--------------|
|-----------------|-------------|-----------|--------------|
|------3--(3)-----|-5--5--5--5--|------3----|----3--2-3----|
|-2----1--(1)---5-|-3--3--3--3--|-2----1----|-2--1--0-1-5--|
|-0-------------3-|-------------|-0---------|-0---------3--|


  E5   Bb5      G5  C5
                                  PM--------------------------------------|
  H    Q  +S  S E   Q  Q  Q  Q    E E S S E E E S S E   E E S S E E E S S E
|-----------------|-------------|---------------------|----------------------|
|-----------------|-------------|---------------------|----------------------|
|-----------------|-------------|---------------------|----------------------|
|------3--(3)-----|-5--5--5--5--|-5-5-5-5-5-5-5-5-5-5-|-5-5-5-5-5-5-5-5-5-5--|
|-2----1--(1)---5-|-3--3--3--3--|-3-3-3-3-3-3-3-3-3-3-|-3-3-3-3-3-3-3-3-3-3--|
|-0-------------3-|-------------|---------------------|----------------------|


 Guitar Break
  E5           E5         E5  E5           Bb5   Bb5
  Q  Q  H      Q  Q  Q  E E   Q  Q  H      Q  Q  Q  Q
|------------|--------------|------------|-------------|
|------------|--------------|------------|-------------|
|------------|--------------|------------|-------------|
|------------|--------------|------------|-3-----3-----|
|-2----------|-2----------2-|-2----------|-1-----1-----|
|-0----------|-0----------0-|-0----------|-------------|


  E5           E5         E5  E5           Bb5
                                           PM------------|
  Q  Q  H      Q  Q  Q  E E   Q  Q  H      E E E E E E E E
|------------|--------------|------------|-----------------|
|------------|--------------|------------|-----------------|
|------------|--------------|------------|-----------------|
|------------|--------------|------------|-3-3-3-3-3-3-3-3-|
|-2----------|-2----------2-|-2----------|-1-1-1-1-1-1-1-1-|
|-0----------|-0----------0-|-0----------|-----------------|


  E5   Bb5    E5 Bb5A5BbG5   E5   Bb5      G5  C5
  H    H      Q  Q  E E Q    H    Q  +S  S E   Q  Q  Q  Q
|-----------|--------------|-----------------|-------------|
|-----------|--------------|-----------------|-------------|
|-----------|--------------|-----------------|-------------|
|------3----|----3--2-3----|------3--(3)-----|-5--5--5--5--|
|-2----1----|-2--1--0-1-5--|-2----1--(1)---5-|-3--3--3--3--|
|-0---------|-0---------3--|-0-------------3-|-------------|


  E5   Bb5    E5 Bb5A5BbG5   E5   Bb5      G5  E5       G5
                                                        PM------------|
  H    H      Q  Q  E E Q    H    Q  +S  S E   Q  +S  S S S E S S E S S
|-----------|--------------|-----------------|---------------------------|
|-----------|--------------|-----------------|---------------------------|
|-----------|--------------|-----------------|---------------------------|
|------3----|----3--2-3----|------3--(3)-----|---------------------------|
|-2----1----|-2--1--0-1-5--|-2----1--(1)---5-|-2--(2)---5-5-5-5-5-5-5-5--|
|-0---------|-0---------3--|-0-------------3-|-0--(0)---3-3-3-3-3-3-3-3--|


  E5   Bb5    E5 Bb5A5  G5   E5   Bb5      G5  C5
  H    H      Q  Q  E E Q    H    Q  +S  S E   Q  Q  Q  Q
|-----------|--------------|-----------------|-------------|
|-----------|--------------|-----------------|-------------|
|-----------|--------------|-----------------|-------------|
|------3----|----3--2-3----|------3--(3)-----|-5--5--5--5--|
|-2----1----|-2--1--0-1-5--|-2----1--(1)---5-|-3--3--3--3--|
|-0---------|-0---------3--|-0-------------3-|-------------|


  E5   Bb5    E5 Bb5A5BbG5   E5   Bb5      G5  C5
  H    H      Q  Q  E E Q    H    Q  +S  S E   Q  Q  Q  Q
|-----------|--------------|-----------------|-------------|
|-----------|--------------|-----------------|-------------|
|-----------|--------------|-----------------|-------------|
|------3----|----3--2-3----|------3--(3)-----|-5--5--5--5--|
|-2----1----|-2--1--0-1-5--|-2----1--(1)---5-|-3--3--3--3--|
|-0---------|-0---------3--|-0-------------3-|-------------|


 Riff Change
  E5         Bb5    E5 Bb5A5BbG5   E5       E5Bb5E5Bb5 G5
  Q  +S  S E H      Q  Q  E E Q    Q  +S  S E Q  E E   E E E E E E Q
|-----------------|--------------|-------------------|------------------|
|-----------------|--------------|-------------------|------------------|
|-----------------|--------------|-------------------|------------------|
|------------3----|----3--2-3----|------------3----3-|------------------|
|-2--(2)---2-1----|-2--1--0-1-5--|-2--(2)---2-1--2-1-|-5-5-5-5-5-5-5----|
|-0--(0)---0------|-0---------3--|-0--(0)---0----0---|-3-3-3-3-3-3-3----|


  E5       E5Bb5    E5 Bb5A5BbG5   E5       E5Bb5E5Bb5 E5           G5    G5
  Q  +S  S E H      Q  Q  E E Q    Q  +S  S E Q  E E   Q  +S  S S S E S S Q
|-----------------|--------------|-------------------|------------------------|
|-----------------|--------------|-------------------|------------------------|
|-----------------|--------------|-------------------|------------------------|
|------------3----|----3--2-3----|------------3----3-|--------------5-----5---|
|-2--(2)---2-1----|-2--1--0-1-5--|-2--(2)---2-1--2-1-|-2--(2)-------5-----5---|
|-0--(0)---0------|-0---------3--|-0--(0)---0----0---|-0--(0)---0-0-3-0-0-3---|


  E5       E5Bb5    E5 Bb5A5BbG5   E5       E5Bb5E5Bb5
  Q  +S  S E H      Q  Q  E E Q    Q  +S  S E Q  E E
|-----------------|--------------|--------------------|
|-----------------|--------------|--------------------|
|-----------------|--------------|--------------------|
|------------3----|----3--2-3----|------------3----3--|
|-2--(2)---2-1----|-2--1--0-1-5--|-2--(2)---2-1--2-1--|
|-0--(0)---0------|-0---------3--|-0--(0)---0----0----|


  G5                            E5       E5Bb5    E5 Bb5A5BbG5
                PM----------|
  S E S S E S S S S S S S S S   Q  +S  S E H      Q  Q  E E Q
|-----------------------------|-----------------|--------------|
|-----------------------------|-----------------|--------------|
|-----------------------------|-----------------|--------------|
|-----------------------------|------------3----|----3--2-3----|
|-5-5-5-5-5-5-5-5-5-5-5-5-5-5-|-2--(2)---2-1----|-2--1--0-1-5--|
|-3-3-3-3-3-3-3-3-3-3-3-3-3-3-|-0--(0)---0------|-0---------3--|


                                      Outro Riff
  E5       E5Bb5E5Bb5 G5               E5      Bb5        E5    BbA5    BbA5Bb5
                                       PM----|            PM--|
  Q  +S  S E Q  E E   E E E E E E Q    E S S E E +H       E S S E E +E  E E E
|-------------------|----------------|------------------|----------------------|
|-------------------|----------------|------------------|----------------------|
|-------------------|----------------|------------------|----------------------|
|------------3----3-|----------------|---------3-(3)----|-------3-2-(2)-3-2-3--|
|-2--(2)---2-1--2-1-|-5-5-5-5-5-5-5--|-2-2-2-2-1-(1)----|-2-2-2-1-0-(0)-1-0-1--|
|-0--(0)---0----0---|-3-3-3-3-3-3-3--|-0-0-0-0----------|-0-0-0----------------|


  E5      Bb5        E5    BbA5    BbA5Bb5
  PM----|            PM--|
  E S S E E +H       E S S E E +E  E E E
|------------------|---------------------|
|------------------|---------------------|
|------------------|---------------------|
|---------3-(3)----|-------3-2-(2)-3-2-3-|
|-2-2-2-2-1-(1)----|-2-2-2-1-0-(0)-1-0-1-|
|-0-0-0-0----------|-0-0-0---------------|


  E5      Bb5        E5    BbA5    BbA5Bb5
  PM----|            PM--|
  E S S E E +H       E S S E E +E  E E E
|------------------|---------------------|
|------------------|---------------------|
|------------------|---------------------|
|---------3-(3)----|-------3-2-(2)-3-2-3-|
|-2-2-2-2-1-(1)----|-2-2-2-1-0-(0)-1-0-1-|
|-0-0-0-0----------|-0-0-0---------------|


  E5      Bb5        E5    BbA5    BbA5        Bb5A5BbA5G5  E5E5Bb5A5BbA5G5
  PM----|            PM--|                 PM|              PM|
  E S S E E +H       E S S E E +E  E E E   E E Q  E E E E   E E Q  E E E E
|------------------|---------------------|----------------|------------------|
|------------------|---------------------|----------------|------------------|
|------------------|---------------------|----------------|------------------|
|---------3-(3)----|-------3-2-(2)-3-2-3-|-----3--2-3-2---|-----3--2-3-2-----|
|-2-2-2-2-1-(1)----|-2-2-2-1-0-(0)-1-0-1-|-2-2-1--0-1-0-5-|-2-2-1--0-1-0-5---|
|-0-0-0-0----------|-0-0-0---------------|-0-0----------3-|-0-0----------3---|


  E5  Bb5A5BbA5G5  E5E5Bb5A5BbA5G5  E5  Bb5A5BbA5G5  E5E5Bb5A5BbA5G5
  PM|              PM|              PM|              PM|
  E E Q  E E E E   E E Q  E E E E   E E Q  E E E E   E E Q  E E E E
|----------------|----------------|----------------|----------------|
|----------------|----------------|----------------|----------------|
|----------------|----------------|----------------|----------------|
|-----3--2-3-2---|-----3--2-3-2---|-----3--2-3-2---|-----3--2-3-2---|
|-2-2-1--0-1-0-5-|-2-2-1--0-1-0-5-|-2-2-1--0-1-0-5-|-2-2-1--0-1-0-5-|
|-0-0----------3-|-0-0----------3-|-0-0----------3-|-0-0----------3-|


  E5E5Bb5A5BbA5G5  E5E5Bb5A5BbA5G5  E5G5                  G5
  PM|                                 PM--------------|
  E E Q  E E E E   E E Q  E E E E   E E E E E E S S S S   Q  Q  H
|----------------|----------------|---------------------|------------*|
|----------------|----------------|---------------------|------------*|
|----------------|----------------|---------------------|------------*|
|-----3--2-3-2---|-----3--2-3-2---|---------------------|------------*|
|-2-2-1--0-1-0-5-|-2-2-1--0-1-0-5-|-2-5-5-5-5-5-5-5-5-5-|-5----------*|
|-0-0----------3-|-0-0----------3-|-0-3-3-3-3-3-3-3-3-3-|-3----------*|



Duration Legend
---------------
W - whole; H - half; Q - quarter; E - 8th; S - 16th; T - 32nd; X - 64th; a - acciaccatura
+ - note tied to previous; . - note dotted; .. - note double dotted
Uncapitalized letters represent notes that are staccato (1/2 duration)
Irregular groupings are notated above the duration line
Duration letters will always appear directly above the note/fret number it represents the
duration for.  Duration letters with no fret number below them represent rests.  Multi-
bar rests are notated in the form Wxn, where n is the number of bars to rest for.  Low
melody durations appear below the staff

Tablature Legend
----------------
 h   - hammer-on
 p   - pull-off
 b   - bend
 pb  - pre-bend
 r   - bend release (if no number after the r, then release immediately)
 /\  - slide into or out of (from/to "nowhere")
 s   - legato slide
 S   - shift slide
 - natural harmonic
[n]  - artificial harmonic
n(n) - tapped harmonic
 ~   - vibrato
 tr  - trill
 T   - tap
 TP  - trem. picking
 PM  - palm muting
\n/  - tremolo bar dip; n = amount to dip
 \n  - tremolo bar down
 n/  - tremolo bar up
/n\  - tremolo bar inverted dip
 =   - hold bend; also acts as connecting device for hammers/pulls
 <> - volume swell (louder/softer)
 x   - on rhythm slash represents muted slash
 o   - on rhythm slash represents single note slash

Misc Legend
-----------
 |  - bar
||  - double bar
||o - repeat start
o|| - repeat end
*|  - double bar (ending)
 :  - bar (freetime)
 $  - Segno
 &  - Coda
Tempo markers -  = BPM(8/16=s8/s16), where s8 = swing 8ths, s16 = swing 16ths
            

comments powered by Disqus
↑ Back to top | Fear Factory Tabs for Body Hammer. Lyrics for acoustic guitar and electric guitar. Tablatures and chords are parodies/interpretations of the original songs. You may use it for private study, scholarship, research or language learning purposes only