» » »

Fear Factory, Body Hammer Bass tabs (ver.1)

Artists:  A B C D E F G H I J K L M N O P Q R S T U V W X Y Z # 

Body Hammer Bass tabs (ver.1)

Fear Factory Tabs
Rating:
5/5 (1 vote)
Body Hammer lessons Tabs too difficult? Try these video lessons and learn fast
                
BODY HAMMER (Bassline)
As recorded by Fear Factory
(From the 1995 Album DEMANUFACTURE)

	

Words by Burton C Bell Music by Fear Factory

Gtr I (E A D G) - 'Bass (Dino)'

 Intro
  Q=158
 4/4
  Gtr I
  Wx17            E E E E E E E E   E E E E E E Q    E E E E E E E E
|-------------||------------------|----------------|-----------------|
|-------------||o-----------------|----------------|-----------------|
|-------------||o-------1---------|-----1---4-5-3--|-------1---------|
|-------------||--3-0-0---0-0-0-0-|-3-0---0--------|-3-0-0---0-0-3-0-|


  E E E E E E E E  4x E E E E E E E E   E E E E E E Q    E E E E E E E E
|------------------||-----------------|----------------|-----------------|
|-----------------o||-----------------|----------------|-----------------|
|-----------------o||-------1---------|-----1---4-5-3--|-------1---------|
|-0-0-0-0-0-0-0-0--||-3-0-0---0-0-0-0-|-3-0---0--------|-3-0-0---0-0-3-0-|


  E E E E E E E E   E E E E E E E E   E E E E E E Q    E E E E E E E E
|-----------------|-----------------|----------------|-----------------|
|-----------------|-----------------|----------------|-----------------|
|-----------------|-------1---------|-----1---4-5-3--|-------1---------|
|-0-0-0-0-0-0-0-0-|-3-0-0---0-0-0-0-|-3-0---0--------|-3-0-0---0-0-3-0-|


  E E E E E E E E   E E E E E E E E   E E E E E E Q    E E E E E E E E
|-----------------|-----------------|----------------|-----------------|
|-----------------|-----------------|---------1-2-0--|-----------------|
|-----------------|-0-----3---------|-0---3----------|-0-----3-----0---|
|-0-0-0-0-0-0-0-0-|---2-2---2-2-2-2-|---2---2--------|---2-2---2-2---2-|


  E E E E E E E E   E E E E E E E E   E E E E E E Q    E E E E E E E E
|-----------------|-----------------|----------------|-----------------|
|-----------------|-----------------|----------------|-----------------|
|-----------------|-------1---------|-----1---4-5-3--|-------1---------|
|-2-2-2-2-2-2-2-2-|-3-0-0---0-0-0-0-|-3-0---0--------|-3-0-0---0-0-3-0-|


  E E E E E E E E   H    H      Q  Q  E E Q    H    H
|-----------------|-----------|--------------|-----------|
|-----------------|-----------|--------------|-----------|
|-----------------|------1----|----1--0-1----|------1----|
|-0-0-0-0-0-0-0-0-|-0---------|-0---------3--|-0---------|


  Q  Q  Q  Q    H    H      Q  Q  E E Q    H    H
|-------------|-----------|--------------|-----------|
|-------------|-----------|--------------|-----------|
|-3--3--3--3--|------1----|----1--0-1----|------1----|
|-------------|-0---------|-0---------3--|-0---------|


  Q  Q  Q  Q    E E E E E E E E   E E E E E E E E   E E E E E E Q
|-------------|-----------------|-----------------|----------------|
|-------------|-----------------|-----------------|----------------|
|-3--3--3--3--|-----------------|-------1---------|-----1---4-5-3--|
|-------------|-0-0-0-0-0-0-0-0-|-3-0-0---0-0-0-0-|-3-0---0--------|


  E E E E E E E E   E E E E E E E E   E E E E E E E E   E E E E E E Q
|-----------------|-----------------|-----------------|----------------|
|-----------------|-----------------|-----------------|----------------|
|-------1---------|-----------------|-------1---------|-----1---4-5-3--|
|-3-0-0---0-0-3-0-|-0-0-0-0-0-0-0-0-|-3-0-0---0-0-0-0-|-3-0---0--------|


  E E E E E E Q    W          E E E E E E E E   E E E E E E Q
|----------------|----------|-----------------|----------------|
|----------------|----------|-----------------|----------------|
|-------1--------|----------|-------1---------|-----1---4-5-3--|
|-3-0-0---0-0-3--|----------|-3-0-0---0-0-0-0-|-3-0---0--------|


  E E E E E E E E   E E E E E E E E   E E E E E E E E   E E E E E E Q
|-----------------|-----------------|-----------------|----------------|
|-----------------|-----------------|-----------------|----------------|
|-------1---------|-----------------|-------1---------|-----1---4-5-3--|
|-3-0-0---0-0-3-0-|-0-0-0-0-0-0-0-0-|-3-0-0---0-0-0-0-|-3-0---0--------|


  E E E E E E E E   E E E E E E E E   E E E E E E E E   E E E E E E Q
|-----------------|-----------------|-----------------|----------------|
|-----------------|-----------------|-----------------|---------1-2-0--|
|-------1---------|-----------------|-0-----3---------|-0---3----------|
|-3-0-0---0-0-3-0-|-0-0-0-0-0-0-0-0-|---2-2---2-2-2-2-|---2---2--------|


  E E E E E E E E   E E E E E E E E   E E E E E E E E   E E E E E E Q
|-----------------|-----------------|-----------------|----------------|
|-----------------|-----------------|-----------------|----------------|
|-0-----3-----0---|-----------------|-------1---------|-----1---4-5-3--|
|---2-2---2-2---2-|-2-2-2-2-2-2-2-2-|-3-0-0---0-0-0-0-|-3-0---0--------|


  E E E E E E E E   E E E E E E E E   H    H      Q  Q  E E Q
|-----------------|-----------------|-----------|--------------|
|-----------------|-----------------|-----------|--------------|
|-------1---------|-----------------|------1----|----1--0-1----|
|-3-0-0---0-0-3-0-|-0-0-0-0-0-0-0-0-|-0---------|-0---------3--|


  H    H      Q  Q  Q  Q    H    H      Q  Q  E E Q
|-----------|-------------|-----------|--------------|
|-----------|-------------|-----------|--------------|
|------1----|-3--3--3--3--|------1----|----1--0-1----|
|-0---------|-------------|-0---------|-0---------3--|


  H    H      H    H      H    H      Q  Q  E E Q
|-----------|-----------|-----------|--------------|
|-----------|-----------|-----------|--------------|
|------1----|-----------|------1----|----1--0-1----|
|-0---------|-0----3----|-0---------|-0---------3--|


  H    H      Q  Q  Q  Q    H    H      Q  Q  E E Q
|-----------|-------------|-----------|--------------|
|-----------|-------------|-----------|--------------|
|------1----|-3--3--3--3--|------1----|----1--0-1----|
|-0---------|-------------|-0---------|-0---------3--|


  H    H      Q  Q  Q  Q    E E E E E E E E   E E E E E E E E
|-----------|-------------|-----------------|-----------------|
|-----------|-------------|-----------------|-----------------|
|------1----|-3--3--3--3--|-----------------|-----------------|
|-0---------|-------------|-0-0-0-0-0-0-0-0-|-0-0-0-0-0-0-0-0-|


  E E E E E E E E   E E E E E E Q    H    E E Q    H    E E Q
|-----------------|----------------|-------------|-------------|
|-----------------|----------------|-------------|-------------|
|-----------------|----------------|-1-----------|-1-----------|
|-0-0-0-0-0-0-0-0-|-0-0-0-0-0-0-0--|------0-0-0--|------0-0-0--|


  H    E E Q    H    E E Q    H    E E Q    H    E E Q
|-------------|-------------|-------------|-------------|
|-------------|-------------|-------------|-------------|
|-1-----------|-1-----------|-1-----------|-1-----------|
|------0-0-0--|------0-0-0--|------0-0-0--|------0-0-0--|


  H    E E Q    H    E E Q    H    E E Q    H    E E Q
|-------------|-------------|-------------|-------------|
|-------------|-------------|-------------|-------------|
|-1-----------|-1-----------|-1-----------|-1-----------|
|------0-0-0--|------0-0-0--|------0-0-0--|------0-0-0--|


  H    E E Q    H    E E Q    H    E E Q    H    E E Q
|-------------|-------------|-------------|-------------|
|-------------|-------------|-------------|-------------|
|-1-----------|-1-----------|-1-----------|-1-----------|
|------0-0-0--|------0-0-0--|------0-0-0--|------0-0-0--|


  H    E E Q    H    E E Q    E E E E E E E E   E E E E E E E E
|-------------|-------------|-----------------|-----------------|
|-------------|-------------|-----------------|-----------------|
|-1-----------|-1-----------|-----------------|-------1---------|
|------0-0-0--|------0-0-0--|-3-3-3-3-3-3-3-3-|-3-0-0---0-0-0-0-|


  E E E E E E Q    E E E E E E E E   E E E E E E E E   E E E E E E E E
|----------------|-----------------|-----------------|-----------------|
|----------------|-----------------|-----------------|-----------------|
|-----1---4-5-3--|-------1---------|-----------------|-------1---------|
|-3-0---0--------|-3-0-0---0-0-3-0-|-0-0-0-0-0-0-0-0-|-3-0-0---0-0-0-0-|


  E E E E E E Q    E E E E E E E E   E E E E E E E E   E E E E E E E E
|----------------|-----------------|-----------------|-----------------|
|----------------|-----------------|-----------------|---------5-5-5-5-|
|-----1---4-5-3--|-------1---------|-----------------|-----------------|
|-3-0---0--------|-3-0-0---0-0-3-0-|-0-0-0-0-0-0-0-0-|-3-3-3-3-3-3-3-3-|


  H    H      Q  Q  E E Q    H    H      Q  Q  Q  Q
|-----------|--------------|-----------|-------------|
|-----------|--------------|-----------|-------------|
|------1----|----1--0-1----|------1----|-3--3--3--3--|
|-0---------|-0---------3--|-0---------|-------------|


  H    H      Q  Q  E E Q    H    H      H    H
|-----------|--------------|-----------|-----------|
|-----------|--------------|-----------|-----------|
|------1----|----1--0-1----|------1----|-----------|
|-0---------|-0---------3--|-0---------|-0----3----|


  H    H      Q  Q  E E Q    H    H      Q  Q  Q  Q
|-----------|--------------|-----------|-------------|
|-----------|--------------|-----------|-------------|
|------1----|----1--0-1----|------1----|-3--3--3--3--|
|-0---------|-0---------3--|-0---------|-------------|


  H    H      Q  Q  E E Q    H    H      Q  Q  Q  Q
|-----------|--------------|-----------|-------------|
|-----------|--------------|-----------|-------------|
|------1----|----1--0-1----|------1----|-3--3--3--3--|
|-0---------|-0---------3--|-0---------|-------------|


                             Guitar Break
  Q  Q  Q  Q    Q  Q  Q  Q    Q  Q  H      Q  Q  H
|-------------|-------------|------------|------------|
|-------------|-------------|------------|------------|
|-3--3--3--3--|-3--3--3--3--|------------|------------|
|-------------|-------------|-0----------|-0----------|


  Q  Q  H      Q  Q  Q  Q    Q  E E +E  E E E   Q  E E +E  E E E
|------------|-------------|------------------|------------------|
|------------|-------------|------------------|------------------|
|------------|-1-----1-----|----1-------1-0---|----1-------1-0---|
|-0----------|-------------|-0----0-(0)-----3-|-0----0-(0)-----0-|


  Q  E E +E  E E E   Q  Q  Q  Q    H    H      Q  Q  E E Q
|------------------|-------------|-----------|--------------|
|------------------|-------------|-----------|--------------|
|----1-------1-0---|-1--1--1--1--|------1----|----1--0-1----|
|-0----0-(0)-----3-|-------------|-0---------|-0---------3--|


  H    H      Q  Q  Q  Q    H    H      Q  Q  E E Q
|-----------|-------------|-----------|--------------|
|-----------|-------------|-----------|--------------|
|------1----|-3--3--3--3--|------1----|----1--0-1----|
|-0---------|-------------|-0---------|-0---------3--|


  H    H      H    H      H    H      Q  Q  E E Q
|-----------|-----------|-----------|--------------|
|-----------|-----------|-----------|--------------|
|------1----|-----------|------1----|----1--0-1----|
|-0---------|-0----3----|-0---------|-0---------3--|


  H    H      Q  Q  Q  Q    H    H      Q  Q  E E Q
|-----------|-------------|-----------|--------------|
|-----------|-------------|-----------|--------------|
|------1----|-3--3--3--3--|------1----|----1--0-1----|
|-0---------|-------------|-0---------|-0---------3--|


                           Riff Change
  H    H      Q  Q  Q  Q    Q  +S  S E H      Q  Q  E E Q
|-----------|-------------|-----------------|--------------|
|-----------|-------------|-----------------|--------------|
|------1----|-3--3--3--3--|------------1----|----1--0-1----|
|-0---------|-------------|-0--(0)---0------|-0---------3--|


  Q  +S  S E Q  E E   E E E E E E E E   Q  +S  S E H      Q  Q  E E Q
|-------------------|-----------------|-----------------|-------------|
|-------------------|-----------------|-----------------|-------------|
|------------1----1-|-----------------|------------1----|----1--0-1---|
|-0--(0)---0----0---|-3-3-3-3-3-3-3-3-|-0--(0)---0------|-0---------3-|


  Q  +S  S E Q  E E   H    H      Q  +S  S E H      Q  Q  E E Q
|-------------------|-----------|-----------------|-------------|
|-------------------|-----------|-----------------|-------------|
|------------1----1-|-----------|------------1----|----1--0-1---|
|-0--(0)---0----0---|-0----3----|-0--(0)---0------|-0---------3-|


  Q  +S  S E Q  E E   E. S E. S E E E E   Q  +S  S E H      Q  Q  E E Q
|-------------------|-------------------|-----------------|-------------|
|-------------------|-------------------|-----------------|-------------|
|------------1----1-|-------------------|------------1----|----1--0-1---|
|-0--(0)---0----0---|-3--3-3--3-3-3-3-3-|-0--(0)---0------|-0---------3-|


                                       Outro Riff
  Q  +S  S E Q  E E   E E E E E E E E   Q  E E +H       Q  E E +E  E E E
|-------------------|-----------------|---------------|------------------|
|-------------------|-----------------|---------------|------------------|
|------------1----1-|-----------------|------1-(1)----|----1-0-(0)-1-0-1-|
|-0--(0)---0----0---|-3-3-3-3-3-3-3-3-|-0--0----------|-0----------------|


  Q  E E +H       Q  E E +E  E E E   Q  E E +H       Q  E E +E  E E E
|---------------|------------------|---------------|------------------|
|---------------|------------------|---------------|------------------|
|------1-(1)----|----1-0-(0)-1-0-1-|------1-(1)----|----1-0-(0)-1-0-1-|
|-0--0----------|-0----------------|-0--0----------|-0----------------|


  Q  E E +H       Q  E E +E  E E E   E E Q  E E E E   E E Q  E E E E
|---------------|------------------|----------------|----------------|
|---------------|------------------|----------------|----------------|
|------1-(1)----|----1-0-(0)-1-0-1-|-----1--0-1-0---|-----1--0-1-0---|
|-0--0----------|-0----------------|-0-0----------3-|-0-0----------3-|


  E E Q  E E E E   E E Q  E E E E   E E Q  E E E E   E E Q  E E E E
|----------------|----------------|----------------|----------------|
|----------------|----------------|----------------|----------------|
|-----1--0-1-0---|-----1--0-1-0---|-----1--0-1-0---|-----1--0-1-0---|
|-0-0----------3-|-0-0----------3-|-0-0----------3-|-0-0----------3-|


  E E Q  E E E E   E E Q  E E E E   E E E E E E E E   Q  Q  H
|----------------|----------------|-----------------|------------*|
|----------------|----------------|-----------------|------------*|
|-----1--0-1-0---|-----1--0-1-0---|-----------------|------------*|
|-0-0----------3-|-0-0----------3-|-0-3-3-3-3-3-3-3-|-3----------*|



Duration Legend
---------------
W - whole; H - half; Q - quarter; E - 8th; S - 16th; T - 32nd; X - 64th; a - acciaccatura
+ - note tied to previous; . - note dotted; .. - note double dotted
Uncapitalized letters represent notes that are staccato (1/2 duration)
Irregular groupings are notated above the duration line
Duration letters will always appear directly above the note/fret number it represents the
duration for.  Duration letters with no fret number below them represent rests.  Multi-
bar rests are notated in the form Wxn, where n is the number of bars to rest for.  Low
melody durations appear below the staff

Tablature Legend
----------------
 h   - hammer-on
 p   - pull-off
 b   - bend
 pb  - pre-bend
 r   - bend release (if no number after the r, then release immediately)
 /\  - slide into or out of (from/to "nowhere")
 s   - legato slide
 S   - shift slide
 - natural harmonic
[n]  - artificial harmonic
n(n) - tapped harmonic
 ~   - vibrato
 tr  - trill
 T   - tap
 TP  - trem. picking
 PM  - palm muting
\n/  - tremolo bar dip; n = amount to dip
 \n  - tremolo bar down
 n/  - tremolo bar up
/n\  - tremolo bar inverted dip
 =   - hold bend; also acts as connecting device for hammers/pulls
 <> - volume swell (louder/softer)
 x   - on rhythm slash represents muted slash
 o   - on rhythm slash represents single note slash

Misc Legend
-----------
 |  - bar
||  - double bar
||o - repeat start
o|| - repeat end
*|  - double bar (ending)
 :  - bar (freetime)
 $  - Segno
 &  - Coda
Tempo markers -  = BPM(8/16=s8/s16), where s8 = swing 8ths, s16 = swing 16ths
            
Submit corrections

comments powered by Disqus
↑ Back to top | Fear Factory Bass for Body Hammer. Lyrics for acoustic guitar and electric guitar. Tablatures and chords are parodies/interpretations of the original songs. You may use it for private study, scholarship, research or language learning purposes only