» » »

Fear Factory, A Therapy For Pain Tabs (ver.3)

Artists:  A B C D E F G H I J K L M N O P Q R S T U V W X Y Z # 

A Therapy For Pain Tabs (ver.3)

Fear Factory Tabs
Rating:
0/5 (0 votes)
Hard to play? Try these video lessons and learn fast.
                
THERAPY FOR PAIN
As recorded by Fear Factory
(From the 1995 Album DEMANUFACTURE)

        

Words and Music by Fear Factory

Gtr I (B E A D F# B) - 'Lead Guitar'
Gtr II (B E A D F# B) - 'Rhythm Guitar'

   Intro
    Q=132
   4/4
    Gtr I
    W          W          W          W
||-----------|----------|----------|-------||
||o----------|----------|----------|------o||
||-----------|----------|----------|-------||
||-----------|----------|----------|-------||
||o----------|----------|----------|------o||
||-----------|----------|----------|-------||


   Verse
    B5
    W          +W           +W           +W      3x
||-----------|------------|------------|---------||
||o----------|------------|------------|--------o||
||--4--------|-(4)--------|-(4)--------|-(4)-----||
||--4--------|-(4)--------|-(4)--------|-(4)-----||
||o-2--------|-(2)--------|-(2)--------|-(2)----o||
||-----------|------------|------------|---------||


  B5                                   B5
  W          +W           +W           W
|----------|------------|------------|------|
|----------|------------|------------|------|
|-4--------|-(4)--------|-(4)--------|-4----|
|-4--------|-(4)--------|-(4)--------|-4----|
|-2--------|-(2)--------|-(2)--------|-2----|
|----------|------------|------------|------|


    B5         A#5  F#5    A5         G#5  E5
    W          H    H      W          H    H     4x
||-----------|-----------|----------|------------||
||o----------|-----------|----------|-----------o||
||--4--------|-3---------|-2--------|------------||
||--4--------|-3----4----|-2--------|-6----2-----||
||o-2--------|-1----4----|-0--------|-6----2----o||
||-----------|------2----|----------|-4----0-----||


  B5
  W          +W           +W           +W
|----------|------------|------------|--------|
|----------|------------|------------|--------|
|-4--------|-(4)--------|-(4)--------|-(4)----|
|-4--------|-(4)--------|-(4)--------|-(4)----|
|-2--------|-(2)--------|-(2)--------|-(2)----|
|----------|------------|------------|--------|


    W          W          W          W     3x
||-----------|----------|----------|-------||
||o----------|----------|----------|------o||
||-----------|----------|----------|-------||
||-----------|----------|----------|-------||
||o----------|----------|----------|------o||
||-----------|----------|----------|-------||


    B5         A#5  F#5    A5         G#5  E5
    W          H    H      W          H    H     4x
||-----------|-----------|----------|------------||
||o----------|-----------|----------|-----------o||
||--4--------|-3---------|-2--------|------------||
||--4--------|-3----4----|-2--------|-6----2-----||
||o-2--------|-1----4----|-0--------|-6----2----o||
||-----------|------2----|----------|-4----0-----||


  B5
  W          +W           +W           +W
|----------|------------|------------|--------|
|----------|------------|------------|--------|
|-4--------|-(4)--------|-(4)--------|-(4)----|
|-4--------|-(4)--------|-(4)--------|-(4)----|
|-2--------|-(2)--------|-(2)--------|-(2)----|
|----------|------------|------------|--------|


  W          W          W          W
|----------|----------|----------|------|
|----------|----------|----------|------|
|----------|----------|----------|------|
|----------|----------|----------|------|
|----------|----------|----------|------|
|----------|----------|----------|------|


    B5         A#5  F#5    A5         G#5  E5
    W          H    H      W          H    H     4x
||-----------|-----------|----------|------------||
||o----------|-----------|----------|-----------o||
||--4--------|-3---------|-2--------|------------||
||--4--------|-3----4----|-2--------|-6----2-----||
||o-2--------|-1----4----|-0--------|-6----2----o||
||-----------|------2----|----------|-4----0-----||


 Breakdown
  E5
  W          +W           +W           +W
|----------|------------|------------|--------|
|----------|------------|------------|--------|
|----------|------------|------------|--------|
|-2--------|-(2)--------|-(2)--------|-(2)----|
|-2--------|-(2)--------|-(2)--------|-(2)----|
|-0--------|-(0)--------|-(0)--------|-(0)----|


  +W           +W           +W           +W
|------------|------------|------------|--------|
|------------|------------|------------|--------|
|------------|------------|------------|--------|
|-(2)--------|-(2)--------|-(2)--------|-(2)----|
|-(2)--------|-(2)--------|-(2)--------|-(2)----|
|-(0)--------|-(0)--------|-(0)--------|-(0)----|


    Q=122
    W          W          W          W     3x
||-----------|----------|----------|-------||
||o----------|----------|----------|------o||
||-----------|----------|----------|-------||
||-----------|----------|----------|-------||
||o----------|----------|----------|------o||
||-----------|----------|----------|-------||


                                   Q=132
  W          W          W          W
|----------|----------|----------|------|
|----------|----------|----------|------|
|----------|----------|----------|------|
|----------|----------|----------|------|
|----------|----------|----------|------|
|----------|----------|----------|------|


   Outro
    B5
    W          H    H      W          H    H    14x
||-----------|-----------|----------|------------||
||o----------|-----------|----------|-----------o||
||--4--------|-3---------|-2--------|------------||
||--4--------|-3----4----|-2--------|-6----2-----||
||o-2--------|-1----4----|-0--------|-6----2----o||
||-----------|------2----|----------|-4----0-----||


  E5
  W          +W           +W           +W           +W           +W
|----------|------------|------------|------------|------------|--------*|
|----------|------------|------------|------------|------------|--------*|
|----------|------------|------------|------------|------------|--------*|
|-2--------|-(2)--------|-(2)--------|-(2)--------|-(2)--------|-(2)----*|
|-2--------|-(2)--------|-(2)--------|-(2)--------|-(2)--------|-(2)----*|
|-0--------|-(0)--------|-(0)--------|-(0)--------|-(0)--------|-(0)----*|



Duration Legend
---------------
W - whole; H - half; Q - quarter; E - 8th; S - 16th; T - 32nd; X - 64th; a - acciaccatura
+ - note tied to previous; . - note dotted; .. - note double dotted
Uncapitalized letters represent notes that are staccato (1/2 duration)
Irregular groupings are notated above the duration line
Duration letters will always appear directly above the note/fret number it represents the
duration for.  Duration letters with no fret number below them represent rests.  Multi-
bar rests are notated in the form Wxn, where n is the number of bars to rest for.  Low
melody durations appear below the staff

Tablature Legend
----------------
 h   - hammer-on
 p   - pull-off
 b   - bend
 pb  - pre-bend
 r   - bend release (if no number after the r, then release immediately)
 /\  - slide into or out of (from/to "nowhere")
 s   - legato slide
 S   - shift slide
 - natural harmonic
[n]  - artificial harmonic
n(n) - tapped harmonic
 ~   - vibrato
 tr  - trill
 T   - tap
 TP  - trem. picking
 PM  - palm muting
\n/  - tremolo bar dip; n = amount to dip
 \n  - tremolo bar down
 n/  - tremolo bar up
/n\  - tremolo bar inverted dip
 =   - hold bend; also acts as connecting device for hammers/pulls
 <> - volume swell (louder/softer)
 x   - on rhythm slash represents muted slash
 o   - on rhythm slash represents single note slash

Misc Legend
-----------
 |  - bar
||  - double bar
||o - repeat start
o|| - repeat end
*|  - double bar (ending)
 :  - bar (freetime)
 $  - Segno
 &  - Coda
Tempo markers -  = BPM(8/16=s8/s16), where s8 = swing 8ths, s16 = swing 16ths
            

comments powered by Disqus
↑ Back to top | Fear Factory Tabs for A Therapy For Pain. Lyrics for acoustic guitar and electric guitar. Tablatures and chords are parodies/interpretations of the original songs. You may use it for private study, scholarship, research or language learning purposes only