» » »

Fear Factory, A Therapy For Pain Bass tabs (ver.2)

Artists:  A B C D E F G H I J K L M N O P Q R S T U V W X Y Z # 

A Therapy For Pain Bass tabs (ver.2)

Fear Factory Tabs
 Rating:
4/5 (4 votes)
A Therapy For Pain lessons Tabs too difficult? Try these video lessons and learn fast
1
                
THERAPY FOR PAIN (Bassline)
As recorded by Fear Factory
(From the 1995 Album DEMANUFACTURE)

	

Words and Music by Fear Factory

Gtr I (B E A D F# B) - 'Keyboard'
Gtr II (B E A D) - 'Bass'

 Intro
  Q=132
 4/4
  Gtr I
  W          H    H      W          H    H
|----------|-----------|----------|-----------|
|----------|-----------|----------|-----------|
|----------|-----------|----------|-----------|
|----------|-----------|----------|-----------|
|-2--------|-1---------|-0--------|-----------|
|----------|------2----|----------|-4----0----|


  W          H    H      W          H    H
|----------|-----------|----------|-----------|
|----------|-----------|----------|-----------|
|----------|-----------|----------|-----------|
|----------|-----------|----------|-----------|
|-2--------|-1---------|-0--------|-----------|
|----------|------2----|----------|-4----0----|


   Verse
     W           H     H       W           H     H     6x
||--19--------|-18----14----|-17--------|-16----12-----||
||o-----------|-------------|-----------|-------------o||
||------------|-------------|-----------|--------------||
||------------|-------------|-----------|--------------||
||o-----------|-------------|-----------|-------------o||
||--19--------|-18----14----|-17--------|-16----12-----||
|
|   Gtr II
|    W           H     H       W           H     H     6x
||------------|-------------|-----------|--------------||
||o-----------|-------------|-----------|-------------o||
||o--2--------|--1----------|--0--------|-------------o||
||------------|--------2----|-----------|--4-----0-----||


     W           H     H       W           H     H
||------------|-------------|-----------|--------------||
||o-----------|-------------|-----------|-------------o||
||--16--------|-15----------|-14--------|-13-----------||
||------------|-------16----|-----------|-------14-----||
||o-14--------|-------------|-----------|-------------o||
||------------|-18----14----|-17--------|-16----12-----||
|
|    W           H     H       W           H     H
||------------|-------------|-----------|--------------||
||o-----------|-------------|-----------|-------------o||
||o--2--------|--1----------|--0--------|-------------o||
||------------|--------2----|-----------|--4-----0-----||


    Gtr II
    W          H    H      W          H    H     4x
||-----------|-----------|----------|------------||
||o----------|-----------|----------|-----------o||
||o-2--------|-1---------|-0--------|-----------o||
||-----------|------2----|----------|-4----0-----||


    Gtr I
     W           H     H       W           H     H
||--19--------|-18----14----|-17--------|-16----12-----||
||o-----------|-------------|-----------|-------------o||
||------------|-------------|-----------|--------------||
||------------|-------------|-----------|--------------||
||o-----------|-------------|-----------|-------------o||
||--19--------|-18----14----|-17--------|-16----12-----||
|
|   Gtr II
|    W           H     H       W           H     H
||------------|-------------|-----------|--------------||
||o-----------|-------------|-----------|-------------o||
||o--2--------|--1----------|--0--------|-------------o||
||------------|--------2----|-----------|--4-----0-----||


     W           H     H       W           H     H
||------------|-------------|-----------|--------------||
||o-----------|-------------|-----------|-------------o||
||--16--------|-15----------|-14--------|-13-----------||
||------------|-------16----|-----------|-------14-----||
||o-14--------|-------------|-----------|-------------o||
||------------|-18----14----|-17--------|-16----12-----||
|
|    W           H     H       W           H     H
||------------|-------------|-----------|--------------||
||o-----------|-------------|-----------|-------------o||
||o--2--------|--1----------|--0--------|-------------o||
||------------|--------2----|-----------|--4-----0-----||


    Gtr II
    W          H    H      W          H    H
||-----------|-----------|----------|------------||
||o----------|-----------|----------|-----------o||
||o-2--------|-1---------|-0--------|-----------o||
||-----------|------2----|----------|-4----0-----||


    Gtr I
     W           H     H       W           H     H
||--19--------|-18----14----|-17--------|-16----12-----||
||o-----------|-------------|-----------|-------------o||
||------------|-------------|-----------|--------------||
||------------|-------------|-----------|--------------||
||o-----------|-------------|-----------|-------------o||
||--19--------|-18----14----|-17--------|-16----12-----||
|
|   Gtr II
|    W           H     H       W           H     H
||------------|-------------|-----------|--------------||
||o-----------|-------------|-----------|-------------o||
||o--2--------|--1----------|--0--------|-------------o||
||------------|--------2----|-----------|--4-----0-----||


     W           H     H       W           H     H
||------------|-------------|-----------|--------------||
||o-----------|-------------|-----------|-------------o||
||--16--------|-15----------|-14--------|-13-----------||
||------------|-------16----|-----------|-------14-----||
||o-14--------|-------------|-----------|-------------o||
||------------|-18----14----|-17--------|-16----12-----||
|
|    W           H     H       W           H     H
||------------|-------------|-----------|--------------||
||o-----------|-------------|-----------|-------------o||
||o--2--------|--1----------|--0--------|-------------o||
||------------|--------2----|-----------|--4-----0-----||


 Breakdown
   W           +W            +W            +W
|-----------|-------------|-------------|---------|
|-----------|-------------|-------------|---------|
|-----------|-------------|-------------|---------|
|-14--------|-(14)--------|-(14)--------|-(14)----|
|-----------|-------------|-------------|---------|
|-12--------|-(12)--------|-(12)--------|-(12)----|
|
|  W           +W            +W            +W
|-----------|-------------|-------------|---------|
|-----------|-------------|-------------|---------|
|-----------|-------------|-------------|---------|
|--0--------|--(0)--------|--(0)--------|--(0)----|


   +W            +W            +W            +W
|-------------|-------------|-------------|---------|
|-------------|-------------|-------------|---------|
|-------------|-------------|-------------|---------|
|-(14)--------|-(14)--------|-(14)--------|-(14)----|
|-------------|-------------|-------------|---------|
|-(12)--------|-(12)--------|-(12)--------|-(12)----|
|
|  +W            +W            +W            +W
|-------------|-------------|-------------|---------|
|-------------|-------------|-------------|---------|
|-------------|-------------|-------------|---------|
|--(0)--------|--(0)--------|--(0)--------|--(0)----|


  Q=122
   H.       Q     H     H       H.       Q     W
|--------------|-------------|--------------|-------|
|--------------|-------------|--------------|-------|
|--------------|-------------|--------------|-------|
|-14-------14--|-13----------|-12-------12--|-11----|
|--------------|-------14----|--------------|-------|
|--------------|-------------|--------------|-------|


  H.      Q    H    H      H.      Q    W
|------------|-----------|------------|------|
|------------|-----------|------------|------|
|-9-------9--|-8---------|-7-------7--|-6----|
|------------|------9----|------------|------|
|------------|-----------|------------|------|
|------------|-----------|------------|------|


  H.      Q    H    H      H.      Q    W
|------------|-----------|------------|------|
|-5-------5--|-4---------|-3-------3--|-2----|
|------------|------4----|------------|------|
|------------|-----------|------------|------|
|------------|-----------|------------|------|
|------------|-----------|------------|------|


                                         Q=132
  H.      Q    H.      Q    H.      Q    W
|------------|-4-------4--|-5-------5--|------|
|-5-------5--|------------|------------|-5----|
|------------|------------|------------|------|
|------------|------------|------------|------|
|------------|------------|------------|------|
|------------|------------|------------|------|


   Outro
     W           H     H       W           H     H     4x
||--19--------|-18----14----|-17--------|-16----12-----||
||o-----------|-------------|-----------|-------------o||
||------------|-------------|-----------|--------------||
||------------|-------------|-----------|--------------||
||o-----------|-------------|-----------|-------------o||
||--19--------|-18----14----|-17--------|-16----12-----||
|
|   Gtr II
|    W           H     H       W           H     H     4x
||------------|-------------|-----------|--------------||
||o-----------|-------------|-----------|-------------o||
||o--2--------|--1----------|--0--------|-------------o||
||------------|--------2----|-----------|--4-----0-----||


     W           H     H       W           H     H
||------------|-------------|-----------|--------------||
||o-----------|-------------|-----------|-------------o||
||--16--------|-15----------|-14--------|-13-----------||
||------------|-------16----|-----------|-------14-----||
||o-14--------|-------------|-----------|-------------o||
||------------|-18----14----|-17--------|-16----12-----||
|
|    W           H     H       W           H     H
||------------|-------------|-----------|--------------||
||o-----------|-------------|-----------|-------------o||
||o--2--------|--1----------|--0--------|-------------o||
||------------|--------2----|-----------|--4-----0-----||


     W           H     H       W           H     H     8x
||--19--------|-18----14----|-17--------|-16----12-----||
||o-----------|-------------|-----------|-------------o||
||------------|-------------|-----------|--------------||
||------------|-------------|-----------|--------------||
||o-----------|-------------|-----------|-------------o||
||--19--------|-18----14----|-17--------|-16----12-----||
|
|    W           H     H       W           H     H     8x
||------------|-------------|-----------|--------------||
||o-----------|-------------|-----------|-------------o||
||o--2--------|--1----------|--0--------|-------------o||
||------------|--------2----|-----------|--4-----0-----||


  W          +W           +W           +W           +W           +W
|----------|------------|------------|------------|------------|--------*|
|----------|------------|------------|------------|------------|--------*|
|-4--------|-(4)--------|-(4)--------|-(4)--------|-(4)--------|-(4)----*|
|-2--------|-(2)--------|-(2)--------|-(2)--------|-(2)--------|-(2)----*|
|----------|------------|------------|------------|------------|--------*|
|-0--------|-(0)--------|-(0)--------|-(0)--------|-(0)--------|-(0)----*|
|
| W          +W           +W           +W           +W           +W
|----------|------------|------------|------------|------------|--------*|
|----------|------------|------------|------------|------------|--------*|
|----------|------------|------------|------------|------------|--------*|
|-0--------|-(0)--------|-(0)--------|-(0)--------|-(0)--------|-(0)----*|



Duration Legend
---------------
W - whole; H - half; Q - quarter; E - 8th; S - 16th; T - 32nd; X - 64th; a - acciaccatura
+ - note tied to previous; . - note dotted; .. - note double dotted
Uncapitalized letters represent notes that are staccato (1/2 duration)
Irregular groupings are notated above the duration line
Duration letters will always appear directly above the note/fret number it represents the
duration for.  Duration letters with no fret number below them represent rests.  Multi-
bar rests are notated in the form Wxn, where n is the number of bars to rest for.  Low
melody durations appear below the staff

Tablature Legend
----------------
 h   - hammer-on
 p   - pull-off
 b   - bend
 pb  - pre-bend
 r   - bend release (if no number after the r, then release immediately)
 /\  - slide into or out of (from/to "nowhere")
 s   - legato slide
 S   - shift slide
 - natural harmonic
[n]  - artificial harmonic
n(n) - tapped harmonic
 ~   - vibrato
 tr  - trill
 T   - tap
 TP  - trem. picking
 PM  - palm muting
\n/  - tremolo bar dip; n = amount to dip
 \n  - tremolo bar down
 n/  - tremolo bar up
/n\  - tremolo bar inverted dip
 =   - hold bend; also acts as connecting device for hammers/pulls
 <> - volume swell (louder/softer)
 x   - on rhythm slash represents muted slash
 o   - on rhythm slash represents single note slash

Misc Legend
-----------
 |  - bar
||  - double bar
||o - repeat start
o|| - repeat end
*|  - double bar (ending)
 :  - bar (freetime)
 $  - Segno
 &  - Coda
Tempo markers -  = BPM(8/16=s8/s16), where s8 = swing 8ths, s16 = swing 16ths
            
Submit corrections

comments powered by Disqus
↑ Back to top | Fear Factory Bass for A Therapy For Pain. Lyrics for acoustic guitar and electric guitar. 1 Tablatures and chords are parodies/interpretations of the original songs. You may use it for private study, scholarship, research or language learning purposes only