» » »

Fear Before The March Of Flames, Mouth Tabs (ver.2)

Artists:  A B C D E F G H I J K L M N O P Q R S T U V W X Y Z # 
Rating:
5/5 (4 votes)
Mouth lessons Tabs too difficult? Try these video lessons and learn fast
                
i have the tabs for 2 others, cassandra and lyncathropy.
i'll finish them up.
and i tabbed it from my keyboard by ear then played it on guitar.
good luck.
=)

Intro/Verse

e|----------------| x8
B|----------------|
G|----------------|
D|---3~---3~---6~-|
A|-3~---3~---3~---|
D|----------------|

after playing it twice
guitar 2 plays this

e|-9b---9b---9b---| x2
B|----------------|
G|----------------|
D|----------------|
A|----------------|
D|----------------|

Chorus

e|-------------------|
B|-------------------|
G|-------------------|
D|-6-x8--8-x4--11-x4-|
A|-6-----8-----11----|
D|-6-----8-----11----|

Anything to numb...
(figure out strumming and number of times to play it)

e|--------------| x3
B|--------------|
G|-5--8--11--10-|
D|-5--8--11--10-|
A|-3--6--9---8--|
D|--------------|

e|--------------| x1
B|--------------|
G|-5--8--11--5~-|
D|-5--8--11--5~-|
A|-3--6--9---3~-|
D|--------------|

Pleasure Island Part

e|---------------| x1
B|---------------|
G|-6--8--10--11--|
D|-6--8--10--11--|
A|-6--8--10--11--|
D|---------------|

e|--------------|
B|--------------|
G|-3-3-5-5-3-6--|
D|-3-3-5-5-3-6--|
A|-1-1-3-3-1-4--|
D|--------------| x1

End (Before Fading)

e|----------------------| x1
B|----------------------|
G|-3-5-3-6--------------|
D|-3-5-3-6---6~--5~--3~-|
A|-1-3-1-4-----3~--3~---|
D|----------------------|

e|----------------------| x1
B|----------------------|
G|-3-5-3-6--------------|
D|-3-5-3-6---6~--5~-----|
A|-1-3-1-4-----3~--3~---|
D|----------------------|
            
Submit corrections

comments powered by Disqus
↑ Back to top | Fear Before The March Of Flames Tabs for Mouth. Lyrics for acoustic guitar and electric guitar. Tablatures and chords are parodies/interpretations of the original songs. You may use it for private study, scholarship, research or language learning purposes only