» » »

Mouth Tabs (ver.1)

Artists:  A B C D E F G H I J K L M N O P Q R S T U V W X Y Z # 

Mouth Tabs (ver.1)

Fear Before The March Of Flames
Rating:
3/5 (4 votes)

Hard to play? Try these video lessons and learn fast.
                I know this probably isn't perfect but it's pretty close to it considering all the delay 
random noises they use. Ehh just go for it.
-Zac

Tuning:
D
A
F
C
G
C

Intro/Verse: Guitar 1

D|----------|
A|----------|
F|-0~-0~-3~-|  x8
C|----------|
G|----------|
C|0~-1~-5~--|

Chorus: Guitar 1 (0:46)

D|--------------|
A|--------------|
F|1010-1010-7-7-|  x4(strumming pattern is easy so that's not exact)
C|8-8--1010-5-5-|
G|8-8--7-7--5-5-|
C|8-8--7-7--5-5-|

Post Chorus: Guitar 1 (1:10)
Just make a bunch of noise with your effects and do some simple stuff and play this quietly:

D|----------|
A|----------|
F|--0~--0~--|  x7
C|----------|
G|-6~--3~---|
C|----------|

Last time: Guitar 1 (1:48)
D|----------|
A|----------|
F|--0~--0~--|  x7
C|----------|
G|-6~--3~---|
C|--------5-|

Verse 2: Guitar 1 (1:54)
D|----------|
A|----------|
F|-0~-0~-3~-|  x4
C|----------|
G|----------|
C|0~-1~-5~--|

Pre-Chorus: Guitar 1 (2:27)
D|------------------------|
A|------------------------|
F|------------------------|  x1
C|------------------------|
G|-----5/10~--------------|
C|5~-8~--------8p0-7p0-5--|

Chorus 2: Guitar 1 (2:39)
D|--------------|
A|--------------|
F|1010-1010-7-7-|  x4
C|8-8--1010-5-5-|
G|8-8--7-7--5-5-|
C|8-8--7-7--5-5-|

Outro: Guitar 1 (3:02)
D|------------------------|
A|------------------------|
F|------------------------|  x1
C|------------------------|
G|-----5/10~--------------|
C|5~-8~--------8p0-7p0-5--|

D|------------------------|
A|------------------------|
F|------------------------|  x1
C|------------------------|
G|-----5/10~--------------|
C|5~-8~--------8p0-7p0~---|


Guitar 2, same tuning:

Intro: Guitar 2 (0:13)
D|------------------------|
A|------------------------|
F|-10-0----10-0---10------|  x1
C|------8-------8---------|
G|------------------------|
C|------------------------|

Chorus: Guitar 2 (0:46)
D|------------------------------------------|
A|------------------------------------------|
F|--15-15-17-17-12-12----15-15-14-14-12-12--|  x2(Not exact timing but it's
C|------------------------------------------|     easy to figure out)
G|--13-13-15-15-10-10----13-13-12-12-10-10--|
C|------------------------------------------|

Post Chorus: Guitar 2 (1:10)
Just a bunch of noise and note in the key of the song with lots of delay and sustain on 
but you an play the same as guitar 1 if needed which is this.

D|----------|
A|----------|
F|--0~--0~--|  x7
C|----------|
G|-6~--3~---|
C|----------|

Last time: Guitar 2 (1:48)
D|----------|
A|----------|
F|--0~--0~--|  x1
C|----------|
G|-6~--3~---|
C|--------5-|

Verse 2: Guitar 2 (1:54)
Nothing really just make up stuff, you don't come in until the end of the verse.

End of verse 2: Guitar 2 (2:11)
D|------------------------|
A|------------------------|
F|-10-0----10-0---10------|  x1
C|------8-------8---------|
G|------------------------|
C|------------------------|

Pre-Chorus: Guitar 2 (2:27)
Again a bunch of noise and delay but you can play the same as guitar one here or only 
guitar 2 play this part.
D|------------------------|
A|------------------------|
F|------------------------|  x1
C|------------------------|
G|-----5/10~--------------|
C|5~-8~--------8p0-7p0-5--|

Chorus 2: Guitar 2 (2:39)
D|------------------------------------------|
A|------------------------------------------|
F|--15-15-17-17-12-12----15-15-14-14-12-12--|  x2
C|------------------------------------------|
G|--13-13-15-15-10-10----13-13-12-12-10-10--|
C|------------------------------------------|

Outro: Guitar 2 (3:02)
Again this is just played by one guitar so you decide if 1 or 2 plays it, or you both 
I don't care)

D|------------------------|
A|------------------------|
F|------------------------|  x1
C|------------------------|
G|-----5/10~--------------|
C|5~-8~--------8p0-7p0-5--|

D|------------------------|
A|------------------------|
F|------------------------|  x1
C|------------------------|
G|-----5/10~--------------|
C|5~-8~--------8p0-7p0~---|

That's it.
            
Hard to play? Try these video lessons and learn fast. | Correct




comments powered by Disqus
↑ Back to top | Tablatures and chords are parodies/interpretations of the original songs. You may use it for private study, scholarship, research or language learning purposes only