>
 >
Fashion Tips Baby

Fashion Tips Baby Guitar Tabs

Fear Before The March Of Flames - Fashion Tips Baby chords, tabs, tablatures, lyrics

Guitar lessons | Add/correct | Request | Top 50 tabs Artists:  A B C D E F G H I J K L M N O P Q R S T U V W X Y Z 0-9

Fashion Tips Baby Guitar Tabs – Fear Before The March Of Flames

CD, Sheet music, Poster

Do you like Fashion Tips Baby? Share with your friends now
Bass TabsTabsTabs v2
FASHION TIPS BABY
As recorded by Fear Before the March of Flames
(From the 2003 Album ODD HOW PEOPLE SHAKE)

        

Words and Music by FBTMOF
Arranged by Joe Warzala

Gtr I (D A D G B E) - 'Untitled'
Gtr II (D A D G B E) - 'Untitled'
Gtr III (D A D G B E) - 'Untitled'

 Intro
  Q=196
                      B5
 4/4
  Gtr II
  W                   Q  Q  Q  Q    +Q   Q  Q  Q
|-------------------|-------------|---------------|
|-------------------|-------------|---------------|
|-------------------|-------------|---------------|
|-------------------|-9--9--9--9--|-(9)--9--9--9--|
|-------------------|-9--9--9--9--|-(9)--9--9--9--|
|-------------------|-9--9--9--9--|-(9)--9--9--9--|
|
| Gtr I
| H    E  E    Q      W              W
|-------------------|-------------|---------------|
|-------------------|-------------|---------------|
|-------------------|-------------|---------------|
|--------(7)S(11)\--|-------------|---------------|
|--------(5)S=(9)\--|-------------|---------------|
|-------------------|-------------|---------------|


  D5
  Q   E E E E Q     E E E E Q   E E
|-----0-0-0-0-----|-0-0-0-0-----0----|
|-----6-6-6-6-----|-6-6-6-6-----6----|
|-----------------|------------------|
|-----------------|------------------|
|-----------------|------------------|
|-----------------|------------------|
|
| PM|         PM|           PM|
| E E H       E E   H       E E Q
|-----------------|------------------|
|-----------------|------------------|
|-----------------|------------------|
|-0-0---------0-0-|---------0-0------|
|-0-0---------0-0-|---------0-0------|
|-0-0---------0-0-|---------0-0------|


  B5                            D5
  Q  Q  Q  Q    +Q   Q  Q  Q    Q   E E E E Q     E E E E Q   E E
|-------------|---------------|-----0-0-0-0-----|-0-0-0-0-----0---|
|-------------|---------------|-----6-6-6-6-----|-6-6-6-6-----6---|
|-------------|---------------|-----------------|-----------------|
|-9--9--9--9--|-(9)--9--9--9--|-----------------|-----------------|
|-9--9--9--9--|-(9)--9--9--9--|-----------------|-----------------|
|-9--9--9--9--|-(9)--9--9--9--|-----------------|-----------------|
|
|                               PM|         PM|           PM|
| W              W              E E H       E E   H       E E Q
|-------------|---------------|-----------------|-----------------|
|-------------|---------------|-----------------|-----------------|
|-------------|---------------|-----------------|-----------------|
|-------------|---------------|-0-0---------0-0-|---------0-0-----|
|-------------|---------------|-0-0---------0-0-|---------0-0-----|
|-------------|---------------|-0-0---------0-0-|---------0-0-----|


  B5                                D5
  Gtr II
   Q     Q  Q  Q    +Q   Q  Q  Q    Q   E E E E Q     E E E E Q   E E
|-----------------|---------------|-----0-0-0-0-----|-0-0-0-0-----0---|
|-----------------|---------------|-----6-6-6-6-----|-6-6-6-6-----6---|
|-----------------|---------------|-----------------|-----------------|
|--9-----9--9--9--|-(9)--9--9--9--|-----------------|-----------------|
|--9-----9--9--9--|-(9)--9--9--9--|-----------------|-----------------|
|--9-----9--9--9--|-(9)--9--9--9--|-----------------|-----------------|
|
| Gtr I
|                                   PM|         PM|           PM|
|  W                 W              E E H       E E   H       E E Q
|-----------------|---------------|-----------------|-----------------|
|-11b13-----------|---------------|-----------------|-----------------|
|-----------------|---------------|-----------------|-----------------|
|-----------------|---------------|-0-0---------0-0-|---------0-0-----|
|-----------------|---------------|-0-0---------0-0-|---------0-0-----|
|-----------------|---------------|-0-0---------0-0-|---------0-0-----|


  B5                            D5
  Q  Q  Q  Q    +Q   Q  Q  Q    W              W
|-------------|---------------|--------------|-------------|
|-------------|---------------|--------------|-------------|
|-------------|---------------|--------------|-------------|
|-9--9--9--9--|-(9)--9--9--9--|--------------|-------------|
|-9--9--9--9--|-(9)--9--9--9--|--------------|-------------|
|-9--9--9--9--|-(9)--9--9--9--|--------------|-------------|
|
|                               PM|      PM|        PM|
| W              W              E E H    E E   H    E E Q
|-------------|---------------|--------------|-------------|
|-------------|---------------|--------------|-------------|
|-------------|---------------|--------------|-------------|
|-------------|---------------|-0-0------0-0-|------0-0----|
|-------------|---------------|-0-0------0-0-|------0-0----|
|-------------|---------------|-0-0------0-0-|------0-0----|


   Pre-Verse
    N.C.
    Gtr I
    E  E  E E E E E E   E E E E E E E E
||--------------------|-------------7-0--||
||o-5--5--7-7-8-8-7-0-|-5-0-5-0-5-0-----o||
||--------------------|------------------||
||--------------------|------------------||
||o-------------------|-----------------o||
||--------------------|------------------||
|
|   Gtr II
|   E  E  E Q   Q   E   W
||----------0---0-----|------------------||
||o-5-----7-8---8-----|-----------------o||
||----(0)-------------|------------------||
||--------------------|------------------||
||o-------------------|-----------------o||
||--------------------|------------------||


   "Now I Kneel In Shame.."
    C5
    Gtr II
     E  E   E  E  E  E  E  E    E E E E E E E E
||---------------------------|--------------7-0--||
||o--5--5---7--7--8--8--7--0-|--5-0-5-0-5-0-----o||
||---------------------------|-------------------||
||---------------------------|-------------------||
||o--------------------------|------------------o||
||---------------------------|-------------------||
|
|   Gtr I
|    E  E   E  Q     Q     E    W
||-------------0-----0-------|-------------------||
||o--5------7--8-----8-------|------------------o||
||-----(0)-------------------|-------------------||
||---------------------------|-------------------||
||o--------------------------|------------------o||
||---------------------------|-------------------||
|
|   Gtr III
|    E  E   E  E  E  E  E  E    H.          q
||---------------------------|-------------------||
||o--------------------------|------------------o||
||---------------------------|-------------------||
||--10-10--10-10-10-10-10-10-|-10----------------||
||o-10-10--10-10-10-10-10-10-|-10---------------o||
||--10-10--10-10-10-10-10-10-|-10S==========2----||


    A5
    E  E  E E E E E E   E E E E E E E E
||--------------------|-------------7-0--||
||o-5--5--7-7-8-8-7-0-|-5-0-5-0-5-0-----o||
||--------------------|------------------||
||--------------------|------------------||
||o-------------------|-----------------o||
||--------------------|------------------||
|
|   E  E  E Q   Q   E   W
||----------0---0-----|------------------||
||o-5-----7-8---8-----|-----------------o||
||----(0)-------------|------------------||
||--------------------|------------------||
||o-------------------|-----------------o||
||--------------------|------------------||
|
|   E  E  E E E E E E   H.          Q
||--------------------|------------------||
||o-------------------|-----------------o||
||--------------------|------------------||
||--7--7--7-7-7-7-7-7-|-7----------------||
||o-7--7--7-7-7-7-7-7-|-7---------------o||
||--7--7--7-7-7-7-7-7-|-7S==========2----||


    C5
     E  E  E  E  E  E  E  E    E E E E E E E E
||--------------------------|--------------7-0--||
||o--5--5--7--7--8--8--7--0-|--5-0-5-0-5-0-----o||
||--------------------------|-------------------||
||--------------------------|-------------------||
||o-------------------------|------------------o||
||--------------------------|-------------------||
|
|    E  E  E  E  E  E  E  E    q   Q   H
||--------------------------|-10----------------||
||o--8--8--8--8--8--8--8--8-|------------------o||
||--------------------------|-------------------||
||--------------------------|-------------------||
||o-------------------------|------------------o||
||--------------------------|-------------------||
|
|    E  E  E  E  E  E  E  E    H.          q
||--------------------------|-------------------||
||o-------------------------|------------------o||
||--------------------------|-------------------||
||--10-10-10-10-10-10-10-10-|-10----------------||
||o-10-10-10-10-10-10-10-10-|-10---------------o||
||--10-10-10-10-10-10-10-10-|-10S==========2----||


    A5
    E E E E E E E E    E E E E E E E E
||------------------|--------------7-0--||
||o-5-5-7-7-8-8-7-0-|--5-0-5-0-5-0-----o||
||------------------|-------------------||
||------------------|-------------------||
||o-----------------|------------------o||
||------------------|-------------------||
|
|   E E E E E E E E    e H       E E E
||------------------|-10----------------||
||o-8-8-8-8-8-8-8-8-|--------------8-8-o||
||------------------|-------------------||
||------------------|-------------------||
||o-----------------|------------------o||
||------------------|-------------------||
|
|   E E E E E E E E    H.          Q
||------------------|-------------------||
||o-----------------|------------------o||
||------------------|-------------------||
||--7-7-7-7-7-7-7-7-|--7----------------||
||o-7-7-7-7-7-7-7-7-|--7---------------o||
||--7-7-7-7-7-7-7-7-|--7S==========2----||


   Verse (sung)
    C5
     Q    +E   Q    +E   Q      +E H    +Q    E
||---0----(0)--0----(0)--0----|-(0)0----(0)------||
||o--0----(0)--0----(0)--0----|-(0)0----(0)-----o||
||---4----(4)--4----(4)--4----|-(4)4----(4)------||
||----------------------------|------------------||
||o---------------------------|-----------------o||
||----------------------------|------------------||
|
|    E  E  E   E  E  E   E  E    e H     E  E E
||----------------------------|-10---------------||
||o--8--8--8---8--8--8---8--8-|-------------8-8-o||
||----------------------------|------------------||
||----------------------------|------------------||
||o---------------------------|-----------------o||
||----------------------------|------------------||
|
|    E  E  E   E  E  E   E  E    H.         q
||----------------------------|------------------||
||o---------------------------|-----------------o||
||----------------------------|------------------||
||--10-10-10--10-10-10--10-10-|-10---------------||
||o-10-10-10--10-10-10--10-10-|-10--------------o||
||--10-10-10--10-10-10--10-10-|-10S=========2----||


    A5
    Q   +E  Q   +E  Q     +E H    +Q    E
||--0---(0)-0---(0)-0---|-(0)0----(0)------||
||o-0---(0)-0---(0)-0---|-(0)0----(0)-----o||
||--4---(4)-4---(4)-4---|-(4)4----(4)------||
||----------------------|------------------||
||o---------------------|-----------------o||
||----------------------|------------------||
|
|   E E  E  E E  E  E E    e H     E  E E
||----------------------|-10---------------||
||o-8-8--8--8-8--8--8-8-|-------------8-8-o||
||----------------------|------------------||
||----------------------|------------------||
||o---------------------|-----------------o||
||----------------------|------------------||
|
|   E E  E  E E  E  E E    H.         Q
||----------------------|------------------||
||o---------------------|-----------------o||
||----------------------|------------------||
||--7-7--7--7-7--7--7-7-|--7---------------||
||o-7-7--7--7-7--7--7-7-|--7--------------o||
||--7-7--7--7-7--7--7-7-|--7S=========2----||


    C5
     Q    +E   Q    +E   Q      +E H    +Q    E
||---0----(0)--0----(0)--0----|-(0)0----(0)------||
||o--0----(0)--0----(0)--0----|-(0)0----(0)-----o||
||---4----(4)--4----(4)--4----|-(4)4----(4)------||
||----------------------------|------------------||
||o---------------------------|-----------------o||
||----------------------------|------------------||
|
|    E  E  E   E  E  E   E  E    e H     E  E E
||----------------------------|-10---------------||
||o--8--8--8---8--8--8---8--8-|-------------8-8-o||
||----------------------------|------------------||
||----------------------------|------------------||
||o---------------------------|-----------------o||
||----------------------------|------------------||
|
|    E  E  E   E  E  E   E  E    H.         q
||----------------------------|------------------||
||o---------------------------|-----------------o||
||----------------------------|------------------||
||--10-10-10--10-10-10--10-10-|-10---------------||
||o-10-10-10--10-10-10--10-10-|-10--------------o||
||--10-10-10--10-10-10--10-10-|-10S=========2----||


    A5
    Q   +E  Q   +E  Q     +E H    +Q    E
||--0---(0)-0---(0)-0---|-(0)0----(0)------||
||o-0---(0)-0---(0)-0---|-(0)0----(0)-----o||
||--4---(4)-4---(4)-4---|-(4)4----(4)------||
||----------------------|------------------||
||o---------------------|-----------------o||
||----------------------|------------------||
|
|   E E  E  E E  E  E E    e H     E  E E
||----------------------|-10---------------||
||o-8-8--8--8-8--8--8-8-|-------------8-8-o||
||----------------------|------------------||
||----------------------|------------------||
||o---------------------|-----------------o||
||----------------------|------------------||
|
|   E E  E  E E  E  E E    H.         Q
||----------------------|------------------||
||o---------------------|-----------------o||
||----------------------|------------------||
||--7-7--7--7-7--7--7-7-|--7---------------||
||o-7-7--7--7-7--7--7-7-|--7--------------o||
||--7-7--7--7-7--7--7-7-|--7S=========2----||


   Guitar Break
    B5/C
   3/4
    Q  Q  E E   Q  Q  E E   Q  Q  E E   Q  Q  E E  3x
||--7--7----7-|-7--7----7-|-7--7----7-|-7--7----7--||
||o-----------|-----------|-----------|-----------o||
||--5--5----5-|-5--5----5-|-5--5----5-|-5--5----5--||
||------------|-----------|-----------|------------||
||o-----------|-----------|-----------|-----------o||
||------------|-----------|-----------|------------||


 Verse (I fought, the knife..)
  Csus2
   Q   Q  E E    Q   Q  E E    Q   Q  E E    Q   Q  E E
|-------------|-------------|-------------|-------------|
|-------------|-------------|-------------|-------------|
|-------------|-------------|-------------|-------------|
|-12--12--x-x-|-12--12--x-x-|-12--12--x-x-|-12--12--x-x-|
|-10--10--x-x-|-10--10--x-x-|-10--10--x-x-|-10--10--x-x-|
|-10--10--x-x-|-10--10--x-x-|-10--10--x-x-|-10--10--x-x-|


  Asus2
  Q  Q  E E   Q  Q  E E   Q  Q  E E   Q  Q  E E
|-----------|-----------|-----------|-----------|
|-----------|-----------|-----------|-----------|
|-----------|-----------|-----------|-----------|
|-9--9--x-x-|-9--9--x-x-|-9--9--x-x-|-9--9--x-x-|
|-7--7--x-x-|-7--7--x-x-|-7--7--x-x-|-7--7--x-x-|
|-7--7--x-x-|-7--7--x-x-|-7--7--x-x-|-7--7--x-x-|


 Build-up to Outro
  Csus2
  Gtr I
   Q    Q   E E    Q    Q   E E    Q    Q   E E    Q    Q   E E
|---------------|---------------|---------------|---------------|
|---------------|---------------|---------------|---------------|
|---------------|---------------|---------------|---------------|
|-12---12---x-x-|-12---12---x-x-|-12---12---x-x-|-12---12---x-x-|
|-10---10---x-x-|-10---10---x-x-|-10---10---x-x-|-10---10---x-x-|
|-10---10---x-x-|-10---10---x-x-|-10---10---x-x-|-10---10---x-x-|
|
| Gtr II
|  E E  E E E E    E E  E E E E    E E  E E E E    E E  E E E E
|--0-0--0-0-0-0-|--7-7--7-7-7-0-|--0-0--0-0-0-0-|--7-7--7-7-7-0-|
|--5-5--5-5-5-5-|--5-5--5-5-5-5-|--5-5--5-5-5-5-|--5-5--5-5-5-5-|
|---------------|---------------|---------------|---------------|
|---------------|---------------|---------------|---------------|
|---------------|---------------|---------------|---------------|
|---------------|---------------|---------------|---------------|


  Asus2
  Gtr I
  Q   Q   E E   Q   Q   E E   Q   Q   E E   Q   Q   E E
|-------------|-------------|-------------|-------------|
|-------------|-------------|-------------|-------------|
|-------------|-------------|-------------|-------------|
|-9---9---x-x-|-9---9---x-x-|-9---9---x-x-|-9---9---x-x-|
|-7---7---x-x-|-7---7---x-x-|-7---7---x-x-|-7---7---x-x-|
|-7---7---x-x-|-7---7---x-x-|-7---7---x-x-|-7---7---x-x-|
|
| Gtr II
| E E E E E E   E E E E E E   E E E E E E   E E E E E E
|-0-0-0-0-0-0-|-7-7-7-7-7-0-|-0-0-0-0-0-0-|-7-7-7-7-7-0-|
|-5-5-5-5-5-5-|-5-5-5-5-5-5-|-5-5-5-5-5-5-|-5-5-5-5-5-5-|
|-------------|-------------|-------------|-------------|
|-------------|-------------|-------------|-------------|
|-------------|-------------|-------------|-------------|
|-------------|-------------|-------------|-------------|


  Csus2
  Gtr I
   Q    Q     E E    Q    Q     E E    Q    Q     E E    Q    Q     E E
|-----------------|-----------------|-----------------|-----------------|
|-----------------|-----------------|-----------------|-----------------|
|-----------------|-----------------|-----------------|-----------------|
|-12---12-----x-x-|-12---12-----x-x-|-12---12-----x-x-|-12---12-----x-x-|
|-10---10-----x-x-|-10---10-----x-x-|-10---10-----x-x-|-10---10-----x-x-|
|-10---10-----x-x-|-10---10-----x-x-|-10---10-----x-x-|-10---10-----x-x-|
|
| Gtr II
|  E E  E  E  E E    E E  E  E  E E    E E  E  E  E E    E E  E  E  E E
|--0-0--0--0--0-0-|--7-7--7--7--7-0-|--0-0--0--0--0-0-|--7-7--7--7--7-0-|
|--5-5--5--5--5-5-|--5-5--5--5--5-5-|--5-5--5--5--5-5-|--5-5--5--5--5-5-|
|-----------------|-----------------|-----------------|-----------------|
|-----------------|-----------------|-----------------|-----------------|
|-----------------|-----------------|-----------------|-----------------|
|-----------------|-----------------|-----------------|-----------------|
|
| Gtr III
|  Q    E  E  Q      Q    E  E  Q      Q    E  E  Q      Q    E  E  Q
|-12---12-10------|-12---12-10------|-12---12-10------|-12---12-10------|
|------------12---|------------12---|------------12---|------------12---|
|-----------------|-----------------|-----------------|-----------------|
|-----------------|-----------------|-----------------|-----------------|
|-----------------|-----------------|-----------------|-----------------|
|-----------------|-----------------|-----------------|-----------------|


  Asus2
  Gtr I
   Q     Q     E E    Q     Q     E E    Q     Q     E E    Q     Q     E E
|------------------|------------------|------------------|------------------|
|------------------|------------------|------------------|------------------|
|------------------|------------------|------------------|------------------|
|--9-----9-----x-x-|--9-----9-----x-x-|--9-----9-----x-x-|--9-----9-----x-x-|
|--7-----7-----x-x-|--7-----7-----x-x-|--7-----7-----x-x-|--7-----7-----x-x-|
|--7-----7-----x-x-|--7-----7-----x-x-|--7-----7-----x-x-|--7-----7-----x-x-|
|
| Gtr II
|  E  E  E  E  E E    E  E  E  E  E E    E  E  E  E  E E    E  E  E  E  E E
|--0--0--0--0--0-0-|--7--7--7--7--7-0-|--0--0--0--0--0-0-|--7--7--7--7--7-0-|
|--5--5--5--5--5-5-|--5--5--5--5--5-5-|--5--5--5--5--5-5-|--5--5--5--5--5-5-|
|------------------|------------------|------------------|------------------|
|------------------|------------------|------------------|------------------|
|------------------|------------------|------------------|------------------|
|------------------|------------------|------------------|------------------|
|
| Gtr III
|  E  E  E  E  Q      E  E  E  E  Q      E  E  E  E  Q      E  E  E  E  Q
|-14h15p14---------|-14h15p14---------|-14h15p14---------|-14h15p14---------|
|------------------|------------------|------------------|------------------|
|----------14h16---|----------14h16---|----------14h16---|----------14h16---|
|------------------|------------------|------------------|------------------|
|------------------|------------------|------------------|------------------|
|------------------|------------------|------------------|------------------|


  Csus2
  Gtr I
   Q     Q     E  E    Q     Q     E  E
|-------------------|-------------------|
|-------------------|-------------------|
|-------------------|-------------------|
|-12----12-----x--x-|-12----12-----x--x-|
|-10----10-----x--x-|-10----10-----x--x-|
|-10----10-----x--x-|-10----10-----x--x-|
|
|  E  E  E  E  E  E    E  E  E  E  E  E
|-15-15-15-15-15-15-|-15-15-15-15-15-15-|
|-------------------|-------------------|
|-------------------|-------------------|
|-------------------|-------------------|
|-------------------|-------------------|
|-------------------|-------------------|
|
| Gtr III
|  E  E  E  E  Q       E  E  E  E  Q
|-------------------|-------------------|
|-12-12-12-12-15----|-12-12-12-12-15----|
|-------------------|-------------------|
|-------------------|-------------------|
|-------------------|-------------------|
|-------------------|-------------------|


   Q     Q     E  E    Q     Q     E  E
|-------------------|-------------------|
|-------------------|-------------------|
|-------------------|-------------------|
|-12----12-----x--x-|-12----12-----x--x-|
|-10----10-----x--x-|-10----10-----x--x-|
|-10----10-----x--x-|-10----10-----x--x-|
|
|  E  E  E  E  E  E    E  E  E  E  E  E
|-15-15-15-15-15-15-|-15-15-15-15-15-15-|
|-------------------|-------------------|
|-------------------|-------------------|
|-------------------|-------------------|
|-------------------|-------------------|
|-------------------|-------------------|
|
|  E  E  E  E  Q       E  E  E  E  Q
|-------------------|-------------------|
|-12-12-12-12-15----|-12-12-12-12-15----|
|-------------------|-------------------|
|-------------------|-------------------|
|-------------------|-------------------|
|-------------------|-------------------|


  Asus2
  Gtr I
   Q         Q     E  E    Q         Q     E  E
|-----------------------|-----------------------|
|-----------------------|-----------------------|
|-----------------------|-----------------------|
|--9---------9-----x--x-|--9---------9-----x--x-|
|--7---------7-----x--x-|--7---------7-----x--x-|
|--7---------7-----x--x-|--7---------7-----x--x-|
|
| Gtr II
|  E      E  E  E  E  E    E      E  E  E  E  E
|-15-----15-15-15-15-15-|-15-----15-15-15-15-15-|
|-----------------------|-----------------------|
|-----------------------|-----------------------|
|-----------------------|-----------------------|
|-----------------------|-----------------------|
|-----------------------|-----------------------|
|
| Gtr III
|  Q         Q     Q       Q         Q     Q
|-----------------------|-----------------------|
|-12b13=================|=12b13=================|
|-----------14----12----|-----------14----12----|
|-----------------------|-----------------------|
|-----------------------|-----------------------|
|-----------------------|-----------------------|


   Q         Q     E  E    Q         Q     E  E
|-----------------------|-----------------------|
|-----------------------|-----------------------|
|-----------------------|-----------------------|
|--9---------9-----x--x-|--9---------9-----x--x-|
|--7---------7-----x--x-|--7---------7-----x--x-|
|--7---------7-----x--x-|--7---------7-----x--x-|
|
|  E      E  E  E  E  E    E      E  E  E  E  E
|-15-----15-15-15-15-15-|-15-----15-15-15-15-15-|
|-----------------------|-----------------------|
|-----------------------|-----------------------|
|-----------------------|-----------------------|
|-----------------------|-----------------------|
|-----------------------|-----------------------|
|
|  Q         Q     Q       Q         Q     Q
|-----------------------|-----------------------|
|-12b13=================|=12b13=================|
|-----------14----12----|-----------14----12----|
|-----------------------|-----------------------|
|-----------------------|-----------------------|
|-----------------------|-----------------------|


 Outro
  Csus2
   Q   Q  E E    Q   Q  E E    Q   Q  E E    Q   H       +H.
|-------------|-------------|-------------|-----------|---------*|
|-------------|-------------|-------------|-----------|---------*|
|-------------|-------------|-------------|-----------|---------*|
|-12--12--x-x-|-12--12--x-x-|-12--12--x-x-|-12--12----|-(12)----*|
|-10--10--x-x-|-10--10--x-x-|-10--10--x-x-|-10--10----|-(10)----*|
|-10--10--x-x-|-10--10--x-x-|-10--10--x-x-|-10--10----|-(10)----*|



Duration Legend
---------------
W - whole; H - half; Q - quarter; E - 8th; S - 16th; T - 32nd; X - 64th; a - acciaccatura
+ - note tied to previous; . - note dotted; .. - note double dotted
Uncapitalized letters represent notes that are staccato (1/2 duration)
Irregular groupings are notated above the duration line
Duration letters will always appear directly above the note/fret number it represents the
duration for.  Duration letters with no fret number below them represent rests.  Multi-
bar rests are notated in the form Wxn, where n is the number of bars to rest for.  Low
melody durations appear below the staff

Tablature Legend
----------------
 h   - hammer-on
 p   - pull-off
 b   - bend
 pb  - pre-bend
 r   - bend release (if no number after the r, then release immediately)
 /\  - slide into or out of (from/to "nowhere")
 s   - legato slide
 S   - shift slide
 - natural harmonic
[n]  - artificial harmonic
n(n) - tapped harmonic
 ~   - vibrato
 tr  - trill
 T   - tap
 TP  - trem. picking
 PM  - palm muting
\n/  - tremolo bar dip; n = amount to dip
 \n  - tremolo bar down
 n/  - tremolo bar up
/n\  - tremolo bar inverted dip
 =   - hold bend; also acts as connecting device for hammers/pulls
 <> - volume swell (louder/softer)
 x   - on rhythm slash represents muted slash
 o   - on rhythm slash represents single note slash

Misc Legend
-----------
 |  - bar
||  - double bar
||o - repeat start
o|| - repeat end
*|  - double bar (ending)
 :  - bar (freetime)
 $  - Segno
 &  - Coda
Tempo markers -  = BPM(8/16=s8/s16), where s8 = swing 8ths, s16 = swing 16ths





Comments


Popular Fear Before The March Of Flames tabs & chords
Should Have Stayed In The Shallows Bass Tabs
A Tyrant Meets His Maker Tabs
Mouth Tabs
Mouth 1 Tabs
Should Have Stayed In The Shallows 1 Tabs
State Of Texas Vs Fear Before Tabs
Taking Cassandra To The End Of The World Party Tabs
Taking Cassandra To The End Of The World Party 1 Tabs
The Story Of The Curious Oysters Tabs
The Waiting Makes Me Curious Tabs


Song lyrics



↑ Back to top | Tablatures and chords are parodies/interpretations of the original songs. You may use it for private study, scholarship, research or language learning purposes only
© 2014 AZChords.com Contact us | Privacy policy | DMCA | Add/correct tabs | Request tabs | Top 50 tabs