>
 >
Fashion Tips Baby

Fashion Tips Baby Bass Tabs

Fear Before The March Of Flames - Fashion Tips Baby chords, tabs, tablatures, lyrics

Guitar lessons | Add/correct | Request | Top 50 tabs Artists:  A B C D E F G H I J K L M N O P Q R S T U V W X Y Z 0-9

Fashion Tips Baby Bass Tabs – Fear Before The March Of Flames

CD, Sheet music, Poster

Do you like Fashion Tips Baby? Share with your friends now
Bass TabsTabsTabs v2
FASHION TIPS BABY (Bassline)
As recorded by Fear Before the March of Flames
(From the 2003 Album ODD HOW PEOPLE SHAKE)

	

Words and Music by FBTMOF
Arranged by Joe Warzala

Gtr I (D A D G) - 'Untitled'

 Intro
  Q=196
 4/4
               Gtr I
  W            Q  Q  Q  Q    +Q   Q  Q  Q    E E H    E E   H    E E Q
|----------||--------------|---------------|--------------|--------------|
|----------||o-9--9--9--9--|-(9)--9--9--9--|--------------|--------------|
|----------||o-------------|---------------|--------------|--------------|
|----------||--------------|---------------|-0-0------0-0-|------0-0-----|


  Q  Q  Q  Q    E  E  E  H     +E    E E H    E E   H    E E Q
|-------------|--------------------|--------------|--------------||
|-9--9--9--9--|--------------------|--------------|-------------o||
|-------------|-9S10S11S12----(12)-|--------------|-------------o||
|-------------|--------------------|-0-0------0-0-|------0-0-----||


 Pre-Verse
  Wx4
|--------|
|--------|
|--------|
|--------|


   "Now I Kneel In Shame.."
     E  E  E  E  E  E  E  E    E H    Q  E
||--------------------------|--------------|
||o-------------------------|--------------|
||o-------------------------|--------------|
||--10-10-10-10-10-10-10-10-|-10-----------|


   E  E  E  E  E  E  E  E    E H    Q  E
|-------------------------|---------------|
|-------------------------|---------------|
|-------------------------|---------------|
|-10-10-10-10-10-10-10-10-|-10------------|


  E E E E E E E E   E H    Q  E   E E E E E E E E   E H    Q  E
|-----------------|-------------|-----------------|--------------||
|-----------------|-------------|-----------------|-------------o||
|-----------------|-------------|-----------------|-------------o||
|-7-7-7-7-7-7-7-7-|-7-----------|-7-7-7-7-7-7-7-7-|-7------------||


   Verse (sung)
     Q.    Q.    Q     +E   H.      E    Q.    Q.    Q     +E   H.      E
||------------------|-----------------|-----------------|------------------|
||o-----------------|-----------------|-----------------|------------------|
||o-----------------|-----------------|-----------------|------------------|
||--10----10----10--|-(10)-10---------|-10----10----10--|-(10)-10----------|


  Q.   Q.   E E    E H.      +E    Q.   Q.   Q    +Q   Q  Q  Q
|---------------|----------------|--------------|----------------||
|---------------|----7-------(7)-|-9----7----5--|-(5)--7--5-----o||
|-----------7-8-|-10-------------|--------------|------------7--o||
|-7----7--------|----------------|--------------|----------------||


 Guitar Break
 3/4
  Wx12
|---------|
|---------|
|---------|
|---------|


 Verse (I fought, the knife..)
   Q   Q  Q     Q   Q  Q     Q   Q  Q     Q   Q  Q
|------------|------------|------------|------------|
|------------|------------|------------|------------|
|------------|------------|------------|------------|
|-10--10-----|-10--10-----|-10--10-----|-10--10-----|


  Q  Q  Q    Q  Q  Q    Q  Q  Q    Q  Q  Q
|----------|----------|----------|------------|
|----------|----------|----------|------------|
|----------|----------|----------|------------|
|-7--7-----|-7--7-----|-7--7-----|-7--7-------|


 Build-up to Outro
  Q  Q  Q    Q  Q  Q    Q  Q  Q    Q  Q  Q
|----------|----------|----------|----------|
|----------|----------|----------|----------|
|----------|----------|----------|----------|
|-3--3-----|-3--3-----|-3--3-----|-3--3-----|


  Q  Q  Q    Q  Q  Q    E E Q  Q    Q  Q  Q
|----------|----------|-----------|------------|
|----------|----------|-----------|------------|
|----------|----------|-----------|------------|
|-7--7--7--|-7--7-----|-7-7-7--7--|-7--7-------|


   Q   Q  Q     Q   Q  Q     Q   Q  Q     Q   Q  Q
|------------|------------|------------|------------|
|------------|------------|------------|------------|
|------------|------------|------------|------------|
|-10--10-----|-10--10-----|-10--10-----|-10--10-----|


  Q  Q  Q    Q  Q  Q    Q  Q  Q    Q  Q  Q
|----------|----------|----------|------------|
|----------|----------|----------|------------|
|----------|----------|----------|------------|
|-7--7-----|-7--7-----|-7--7-----|-7--7-------|


  Q  Q  Q    Q  Q  Q    Q  Q  Q    Q  Q  Q
|----------|----------|----------|----------|
|----------|----------|----------|----------|
|----------|----------|----------|----------|
|-3--3-----|-3--3-----|-3--3-----|-3--3-----|


  Q  Q  Q    Q  Q  Q    E E Q  Q    Q  Q  Q
|----------|----------|-----------|------------|
|----------|----------|-----------|------------|
|----------|----------|-----------|------------|
|-7--7--7--|-7--7-----|-7-7-7--7--|-7--7-------|


 Outro
  Wx5
|--------*|
|--------*|
|--------*|
|--------*|



Duration Legend
---------------
W - whole; H - half; Q - quarter; E - 8th; S - 16th; T - 32nd; X - 64th; a - acciaccatura
+ - note tied to previous; . - note dotted; .. - note double dotted
Uncapitalized letters represent notes that are staccato (1/2 duration)
Irregular groupings are notated above the duration line
Duration letters will always appear directly above the note/fret number it represents the
duration for.  Duration letters with no fret number below them represent rests.  Multi-
bar rests are notated in the form Wxn, where n is the number of bars to rest for.  Low
melody durations appear below the staff

Tablature Legend
----------------
 h   - hammer-on
 p   - pull-off
 b   - bend
 pb  - pre-bend
 r   - bend release (if no number after the r, then release immediately)
 /\  - slide into or out of (from/to "nowhere")
 s   - legato slide
 S   - shift slide
 - natural harmonic
[n]  - artificial harmonic
n(n) - tapped harmonic
 ~   - vibrato
 tr  - trill
 T   - tap
 TP  - trem. picking
 PM  - palm muting
\n/  - tremolo bar dip; n = amount to dip
 \n  - tremolo bar down
 n/  - tremolo bar up
/n\  - tremolo bar inverted dip
 =   - hold bend; also acts as connecting device for hammers/pulls
 <> - volume swell (louder/softer)
 x   - on rhythm slash represents muted slash
 o   - on rhythm slash represents single note slash

Misc Legend
-----------
 |  - bar
||  - double bar
||o - repeat start
o|| - repeat end
*|  - double bar (ending)
 :  - bar (freetime)
 $  - Segno
 &  - Coda
Tempo markers -  = BPM(8/16=s8/s16), where s8 = swing 8ths, s16 = swing 16ths





Comments


Popular Fear Before The March Of Flames tabs & chords
Given To Dreams Bass Tabs
The God Awful Truth Bass Tabs
A Tyrant Meets His Maker Tabs
Fashion Tips Baby Tabs
Go Wash Your Mouth 2 Tabs
Lisbon Girls Oh The Lisbon Girls 1 Tabs
My (Fucking) Deer Hunter Tabs
On The Bright Side, (She Could Choke) Tabs
On The Brightside She Could Choke Tabs
On The Brightside She Could Choke 2 Tabs


Song lyrics



↑ Back to top | Tablatures and chords are parodies/interpretations of the original songs. You may use it for private study, scholarship, research or language learning purposes only
© 2014 AZChords.com Contact us | Privacy policy | DMCA | Add/correct tabs | Request tabs | Top 50 tabs