» » »

Faster Pussycat, Babylon Tabs (ver.2)

Artists:  A B C D E F G H I J K L M N O P Q R S T U V W X Y Z # 

Babylon Tabs (ver.2)

Faster Pussycat Tabs
Rating:
0/5 (0 votes)
Babylon lessons Tabs too difficult? Try these video lessons and learn fast
                --------------------------------------------------------------------------
                               BABYLON - FASTER PUSSYCAT
--------------------------------------------------------------------------
                Words and Music by: Taime Down and Greg Steele 


Tuning:Standard 

Intro
   (*Drums)
e|----------|---------|-----------------|--------------|-----------------|
B|----------|---------|-----------------|--------------|-----------------|
G|----------|---------|-----------------|--------------|-----------------|
D|----------|---------|---------2-----4-|-4-----2-2----|-----------------|
A|----------|-5--2--1-|-3-------0-----2-|-2-----0-0----|-2----2--2--(2)--|
E|----------|-3--4--3-|-0--3p0-----0----|----3-------3-|-0----0--0--(0)--|

e|----------|---------|-----------------|--------------|-----------------|
B|----------|---------|-----------------|--------------|-----------------|
G|----------|---------|-----------------|--------------|-----------------| 
D|----------|---------|---------2-----4-|-4-----2-2----|-----------------|
A|----------|-5--2--1-|-3-------0-----2-|-2-----0-0----|-2----2--2--(2)--|
E|----------|-3--4--3-|-0--3p0-----0----|----3-------3-|-0----0--0--(0)--|



e|----------|
B|----------|
G|----------|
D|----------|
A|--5--2--1-|
E|--3--4--3-|




1st,2nd,3rd verses
   "Livin"...               fun!__                      
e|---------------|--------------|---------------|--------------|
B|---------------|--------------|---------------|--------------|
G|---------------|--------------|---------------|--------------|
D|-----x--x--x-x-|-x-x--x-x-x-x-|--------2----4-|-4-----2-2----|
A|--2--x--x--x-x-|-x-x--x-x-x-x-|-2------0----2-|-2-----0-0----|
E|--0------------|--------------|-0--3p0----0---|----3-------3-|

   Boy...               ton.__                            We...
e|---------------|--------------|---------------|--------------|
B|---------------|--------------|---------------|--------------|
G|---------------|--------------|---------------|--------------|
D|-----x--x--x-x-|-x-x--x-------|--------2----4-|-4-----2-2----|
A|--2--x--x--x-x-|-x-x--x-5-4-3-|-2------0----2-|-2-----0-0----|
E|--0------------|--------3-2-1-|-0--3p0----0---|----3-------3-|

                           jam...                      
e|---------------|--------------|---------------|--------------|
B|---------------|--------------|---------------|--------------|
G|---------------|--------------|---------------|--------------|
D|-----x--x--x-x-|-x-x--x-x-x-x-|--------2----4-|-4-----2-2----|
A|--2--x--x--x-x-|-x-x--x-x-x-x-|-2------0----2-|-2-----0-0----|
E|--0------------|--------------|-0--3p0----0---|----3-------3-|

    tourist...
e|---------------|--------------|---------------|---------------|
B|---------------|--------------|---------------|---------------|
G|---------------|--------------|---------------|---------------|
D|-----x--x--x-x-|-x-x--x-------|--------2----4-|-4-----2-2-----|
A|--2--x--x--x-x-|-x-x--x-5-4-3-|-2------0----2-|-2-----0-0-----|
E|--0------------|--------3-2-1-|-0--3p0----0---|----3-------3\-|



Chorus
    No we...
e|-------------------------------|------------|
B|-------------------------------|------------|
G|-------------------------------|------------|
D|--4-5-6-------------------2----|---------2--|
A|--2-3-4----5--4----------------|------------|
E|-----------3--2---0--3p0-----0-|-0--3p0-----|

   babylon...                                    Shut up!   
e|--------|-----------------|--------------|-----------------|
B|--------|-----------------|--------------|-----------------|
G|--------|-----------------|--------------|-----------------|
D|--------|---------2-----4-|-4-----2-2----|-----------------|
A|--5--4--|-3-------0-----2-|-2-----0-0----|-2--x-x--x-x-----|
E|--3--2--|-0--3p0-----0----|----3-------3-|-0--x-x--x-x-----|

                                        Shut up!       
e|-----------------|--------------|-----------------|
B|-----------------|--------------|-----------------|
G|-----------------|--------------|-----------------|
D|---------2-----4-|-4-----2-2----|-----------------|
A|-3-------0-----2-|-2-----0-0----|-2--x-x--x-x-----|
E|-0--3p0-----0----|----3-------3-|-0--x-x--x-x-----|






                                                           Trem.bar
Solo     (Full)   (Full)  (Full)  (Full)                   ~~~~~~~~
e|--------/\-------/\------/\------/\------|-----|-----|-3/10------|
B|----5--/--\-5---/--\-5--/--\-5--/--\-5-0-|-(0)-|-(0)-|-5/12------|
G|--7---7b-------7b------7b------7b------0-|-(0)-|-(0)-|-----------|
D|-----------------------------------------|-----|-----|-----------|
A|-----------------------------------------|-----|-----|-----------|
E|-----------------------------------------|-----|-----|-----------|

      (Full)       (Full)                                  ~~~~~~~~
e|-----/\-----------/\-------|---------------------|---------------|
B|----/--\---------/--\------|---------------------|---------------|
G|--14b-(14)p12---/----\-----|---------------------|---------------|
D|---------------7b----(7)p5-|-0-0-0h2-----0h2-----|-0-2-0-2-------|
A|---------------------------|---------------------|---------------|
E|---------------------------|---------3p0-----3p0-|---------------|
    (1/2)            (Full)
      /(Full)~~~~~~~  /(1/2)~~~~~~~
e|--15b/------------12b/-----------|
B|--14b-------------14b------------|
G|---------------------------------|
D|---------------------------------|
A|---------------------------------|
E|---------------------------------|

e|--15p12-------12----------------------------------|
B|--------15p12----15p12----15p12-------12----------|
G|-----------------------15-------15p12----15p14p12-|
D|--------------------------------------------------|
A|--------------------------------------------------|
E|--------------------------------------------------|

e|-----------------------------------------|
B|-----------------------------------------|
G|--15p14p12----14p12-------12-------------|
D|-----------14-------14p12----14p12----14-|
A|-----------------------------------14-14-|
E|-----------------------------------------|
                                                ~~~~
e|--17-18p17p15-17----14-14/15-|-(15)-----12--------|
B|-----------------15----------|-------15-----------|
G|-----------------------------|-------15----14p12--|
D|-----------------------------|--------------------|
A|-----------------------------|--------------------|
E|-----------------------------|--------------------|
     (1/2)     (Full)~~~~ (1/2)       (Full)~
e|----/-\-------17b------|-21b-(21)p12-22b---(22)\--|
B|--14b-(14)p12----------|--------------------------|
G|-----------------------|--------------------------|
D|-----------------------|--------------------------|
A|-----------------------|--------------------------|
E|-----------------------|--------------------------|




| /  slide up
| \  slide down
| h  hammer-on
| p  pull-off
| ~  vibrato
| x  Mute note
===========================================================================
                   Learn it. Rate it. Play it.
===========================================================================

Lyrics:

Livin' in L.A. is so much fun
Boy you is ugly and your girlfriend weighs a ton
We was sittin' in our car in a traffic jam
And some tourist started screamin', "Hey, ain't you that guy in Wham?"

No We won't shut up We're just babblin' on and on
Babylon Babblin' on and on Shut up PPPUSSYCAT Shut up

Man That hoochie-koochie made me dizzy Cowabunga
I said shut your face and take off what you got under
Went outside Said your place Not mine
Toss her panties on the couch and she smells like she might die

No We won't shut up We're just babblin' on and on
Babylon Babblin' on and on

SOLO

Caught in a Bel-Air with Buffy and Biffy
Some homeboy says "Hey guys Want some sniffy?"
On the trigger was a punch and we put a Spanish Fly
Biffy's without spot And Buffy's on my thigh

No We won't shut up We're just babblin' on and on
Babylon Babblin' on and on
PPPPUSSYCAT Shut up PPPPUSSYCAT Shut up
PPPPUSSYCAT Shut up Shut up PPPPUSSYCAT Shut up
            
Submit corrections

comments powered by Disqus
↑ Back to top | Faster Pussycat Tabs for Babylon. Lyrics for acoustic guitar and electric guitar. Tablatures and chords are parodies/interpretations of the original songs. You may use it for private study, scholarship, research or language learning purposes only