» » »

Babylon Bass tabs (ver.1)

Artists:  A B C D E F G H I J K L M N O P Q R S T U V W X Y Z # 

Babylon Bass tabs (ver.1)

Faster Pussycat
Rating:
0/5 (0 votes)

Hard to play? Try these video lessons and learn fast.
                Album:Faster Pussycat
Bassist:Eric Stacy

I love this song. I bought a 4 CD set called Hollywood Rocks, and this song 
is on disc 2. This song is so rockin. You may have trouble with timing so just 
listen to the song.

Intro
G:---------------------------------------|---------------------------------------|
D:---------------------------------------|---------------------------------------|
A:------------------2--2-----------------|------------------2--2-----------------|
E:3-3-2-0--3-0-5--3------3--5--5-3-0--0-0|3-2-1-0--3-0-5--3------3--5--5-3-0--0-0|

Verse
G:-------|------|----------------------------|------|----------------------------------|
D:-------|------|----------------------------|------|----------------------------------|
A:-------|------|------------2--2------------|------|------------------2--2------------|
E:3-2-1-0|------|0--3-0-5--3------3--5--5-3-0|------|3-2-1-0--3-0-5--3------3--5--5-3-0|

G:------|----------------------------|------|---------------------------------------|
D:------|----------------------------|------|---------------------------------------|
A:------|------------2--2------------|------|------------------2--2-----------------|
E:------|0--3-0-5--3------3--5--5-3-0|------|3-2-1-0--3-0-5--3------3--5--5-3-0--0-0|

Chorus
G:-----------------------------------|--------------------|
D:-----------------------------------|-------2-----------2|
A:3-4-5-5-5-5-5-5-5-5----------------|--------------------|
E:--------------------7-7-7-7-7-7-7-7|0--3-0----0-0--3-0--|

G:-------------------------------|
D:-------------------------------|
A:5-5-5-5-5-5-5-5----------------|
E:----------------7-7-7-7-7-7-7-7|

After Chorus
G:---------------------------------|---------------------------------------|
D:---------------------------------|---------------------------------------|
A:------------2--2-----------------|------------------2--2-----------------|
E:0--3-0-5--3------3--5--5-3-0--0-0|3-2-1-0--3-0-5--3------3--5--5-3-0--0-0|

Verse

Chorus 

Solo
G:---------------------------------|---------------------------------------|
D:---------------------------------|---------------------------------------|
A:------------2--2-----------------|------------------2--2-----------------|
E:0--3-0-5--3------3--5--5-3-0--0-0|3-2-1-0--3-0-5--3------3--5--5-3-0--0-0|

G:---------------------------------------|---------------------------------------|
D:---------------------------------------|---------------------------------------|
A:------------------2--2-----------------|------------------2--2-----------------|
E:3-2-1-0--3-0-5--3------3--5--5-3-0--0-0|3-2-1-0--3-0-5--3------3--5--5-3-0--0-0|

Verse

Chorus

End
G:--------------------------------------|--------------------------------------|
D:--------------------------------------|--------------------------------------|
A:------------2--2----------------------|------------2--2----------------------|
E:0--3-0-5--3------3--5--5-3-0--0-0--2-2|0--3-0-5--3------3--5--5-3-0--0-0--2-2|

G:--------------------------------------|---------------------------------|
D:--------------------------------------|---------------------------------|
A:------------2--2----------------------|------------2--2-----------------|
E:0--3-0-5--3------3--5--5-3-0--0-0--2-2|0--3-0-5--3------3--5--5-3-0--0-0|

That's it. Kickass song. The lyrics show the bands sense of humor which is 
cool. I already put it in order for you. Any questions or comments, e-mail 
            
Hard to play? Try these video lessons and learn fast. | Correct




comments powered by Disqus
↑ Back to top | Tablatures and chords are parodies/interpretations of the original songs. You may use it for private study, scholarship, research or language learning purposes only