» » »

Firing Line Tabs (ver.2)

Artists:  A B C D E F G H I J K L M N O P Q R S T U V W X Y Z # 

Firing Line Tabs (ver.2)

Farse
Rating:
0/5 (0 votes)

Hard to play? Try these video lessons and learn fast.
                here we go 

E---------------------------
B---------------------------
G-----5-5-------------------
D-----5-5-5-5-6-6-5-s-6-s-5-
A-----3-3-5-5-6-6-5-s-6-s-5-
e---------3-3-4-4-3-s-4-s-3-


E-------------------
B-------------------
G-----5-5-----------
D-----5-5-5-5-6-6-5-
A-----3-3-5-5-6-6-5-
e---------3-3-4-4-3-


E---------------------------
B---------------------------
G-----5-5-------------------
D-----5-5-5-5-6-6-5-s-6-s-5-
A-----3-3-5-5-6-6-5-s-6-s-5-
e---------3-3-4-4-3-s-4-s-3-


E-------------------
B-------------------
G-----5-5-----------
D-----5-5-5-5-6-6-5-
A-----3-3-5-5-6-6-5-
e---------3-3-4-4-3-


E------------------------------------
B------------------------------------
G-----5--5---5--5--------------------
D-----5--5---5--5---5-5-6-6-5-s-6-s-5
A-----3--3---3--3---5-5-6-6-5-s-6-s-5
e-------------------3-3-4-4-3-s-4-s-3
x2

thats all i got 4 now
            
Hard to play? Try these video lessons and learn fast. | Correct




comments powered by Disqus
↑ Back to top | Tablatures and chords are parodies/interpretations of the original songs. You may use it for private study, scholarship, research or language learning purposes only