» » »

Firing Line Tabs (ver.1)

Artists:  A B C D E F G H I J K L M N O P Q R S T U V W X Y Z # 

Firing Line Tabs (ver.1)

Farse
Rating:
0/5 (0 votes)
Tabs too difficult? Try these video lessons and learn fast.
                Artist - Farse
Title - Firing Line

This is quite an easy song, it's mostly just bar chords
and power chords.



Intro (Part 1)

e|-3----3-3----3----3-3--|
B|-3----4-3----3----4-3--|
G|-5----5-5----5----5-5--|
D|-5----5-5----5----5-5--|
A|-----------------------|
E|-----------------------|

Intro (Part 2) & Verse (Part 1)

e|-3-3-3-3-4-4-3-3--|
B|-4-4-3-3-4-4-3-3--|
G|-5-5-4-4-5-5-4-4--|
D|-5-5-5-5-6-6-5-5--|
A|------------------|
E|------------------|

Verse (Part 2)

e|-3-3---3-3--4-4-4-4-6-6-6-6--|
B|-4-4---4-4--4-4-4-4-6-6-6-6--|
G|-5-5---5-5--5-5-5-5-7-7-7-7--|
D|-5-5---5-5--6-6-6-6-8-8-8-8--|
A|-----------------------------|
E|-----------------------------|

Verse (Part 3)

e|-3-3---3-3--4-4-4-4-4-4-3--|
B|-4-4---4-4--4-4-4-4-4-4-3--|
G|-5-5---5-5--5-5-5-5-5-5-4--|
D|-5-5---5-5--6-6-6-6-6-6-5--|
A|---------------------------|
E|---------------------------|

Chorus

e|-----------------------------------------|
B|-----------------------------------------|
G|---0-1-0-----0-1-0-----0-1-0-------------|
D|---------1---------1---------1-----------|
A|-3---------1------------------------111--|
E|---------------------4----------444------|

End of 2nd Chorus

e|-----------|
B|-----------|
G|-------5---|
D|-------5---|
A|---1-3-3---|
E|-4---------|

Bridge 1 (Part 1)

e|----------4-3--3/4--------33333333333333------------------|
B|----------4-3--3/4--------44444444444444------------------|
G|----------5-4--4/5--------55555555555555----------6-5-6-5-|
D|-6-5------6-5--5/6--6-5---55555555555555------6-5---------|
A|-6-3----------------6-5-------------------4-3-------------|
E|-4-3----------------4-3-----------------------------------|

Bridge 1 (Part 2)

e|-------------------------------------------|
B|-------------------------------------------|
G|-5-5-5-5-5--3-3-3-3-3----------------------|
D|-5-5-5-5-5--3-3-3-3-3--6-6-6-6-6--5-5-6-6--|
A|-3-3-3-3-3--1-1-1-1-1--6-6-6-6-6--5-5-6-6--|
E|-----------------------4-4-4-4-4--3-3-4-4--|

Bridge 1 (Part 3)

e|------------------------------------------------------------|
B|------------------------------------------------------------|
G|-5--5-5-5-5-3-------------3-3--5--5-5-5-5-3-3----------3-3--|
D|-5--5-5-5-5-3--6--6-6-6-6-3-3--5--5-5-5-5-3-3--6-6-6-6-3-3--|
A|-3--3-3-3-3-1--6--6-6-6-6-1-1--3--3-3-3-3-1-1--6-6-6-6-1-1--|
E|---------------4--4-4-4-4----------------------4-4-4-4------|
                                                   * * * * *

Bridge 2 (Part 1)

e|--3--3--6--6--4--4--4--4--|
B|--4--4--6--6--4--4--4--4--|
G|--5--5--7--7--5--5--5--5--|
D|--5--5--8--8--6--6--6--6--|
A|--------------------------|
E|--------------------------|

Bridge 2 (Part 2)

e|--3--3--6--6--4--3---8--|
B|--4--4--6--6--4--3---8--|
G|--5--5--7--7--5--4---9--|
D|--5--5--8--8--6--5--10--|
A|------------------------|
E|------------------------|


Order

Intro (Part 1)                   x1
Intro (Part 2) & Verse (Part 1)  x8
Verse (Part 2)                   x3
Verse (Part 3)                   x1
Chorus                           x4
Intro (Part 2) & Verse (Part 1)  x8
Verse (Part 2)                   x3
Verse (Part 3)                   x1
Chorus                           x4
End of 2nd Chorus                x1
Bridge 1 (Part 1)                x2
Bridge 1 (Part 2)                x2
Bridge 1 (Part 3)                x1
Chorus                           x4 (Slowly)
Bridge 2 (Part 1)                x2
Bridge 2 (Part 2)                x1
            
Tabs too difficult? Try these video lessons and learn fast.


comments powered by Disqus
↑ Back to top | Tablatures and chords are parodies/interpretations of the original songs. You may use it for private study, scholarship, research or language learning purposes only