» » »

Farse, Cigarette Through Polystyrene Tabs (ver.2)

Artists:  A B C D E F G H I J K L M N O P Q R S T U V W X Y Z # 

Cigarette Through Polystyrene Tabs (ver.2)

Farse Tabs
Rating:
4/5 (4 votes)
Cigarette Through Polystyrene lessons Tabs too difficult? Try these video lessons and learn fast
                
Awesome song by an absoloutely awesome band, shame they split up
my fave song off the Boxing Clever lp, since its not up
here thought id post me mates version just with a couple
of edits.

INTRO 1
GTR 1
|----------------------------------------------------------------|
|----------------------------------------------------------------|
|----------33355------666-55533-----------------x5x5x5-5/65/65\3-|
|-3333-666-33355-3333-666-55533-3333-666-888886-x5x5x5-5/65/65\3-|
|-3333-666-11133-3333-444-33311-3333-666-888886-x3x3x3-3/43/43\1-|
|-1111-444-------1111-----------1111-444-666664------------------|

GTR 2
|----------------------------------------------------------------|
|----------------------------------------------------------------|
|-------------------------------10--------------x5x5x5-5/65/65\3-|
|-------------------------------10--------------x5x5x5-5/65/65\3-|
|--------------------------------8--------------x3x3x3-3/43/43\1-|
|----------------------------------------------------------------|

==================================================================
INTRO 2  x2
GTR 1
|----------------------------------------------------------------|
|----------------------------------------------------------------|
|----------33355------666-55533-----------------x5x5x5-5/65/65\3-|
|-3333-666-33355-x333-666-55533-x333-666-888886-x5x5x5-5/65/65\3-|
|-3333-666-11133-x333-444-33311-x333-666-888886-x3x3x3-3/43/43\1-|
|-1111-444-------x111-----------x111-444-666664------------------|

GTR 2
|----------------------------------------------------------------|
|----------------------------------------------------------------|
|-10101010101010-10101010101010-10101010101010--x5x5x5-5/65/65\3-|
|-10101010101010-10101010101010-10101010101010--x5x5x5-5/65/65\3-|
|--8-8-8-8-8-8-8--8-8-8-8-8-8-8--8-8-8-8-8-8-8--x3x3x3-3/43/43\1-|
|----------------------------------------------------------------|

==================================================================
VERSE 1
GTR 1
|--------------3--------------33--------------333--------------3-|
|--------------5--------------55--------------555--------------5-|
|--------------5--------------55--------------555--------------5-|
|--6-6-6-6-6-6-5--6-6-6-6-6-6-55--6-6-6-6-6-6-555--6-6-6-6-6-6-5-|
|-4-4-3-3-4-4-33-4-4-3-3-4-4--33-4-4-3-3-4-4--333-4-4-3-3-4-4-33-|
|----------------------------------------------------------------|
  pm...........  pm..........    pm..........     pm...........
GTR 2
|--------------3--------------33--------------333--------------3-|
|--------------5--------------55--------------555--------------5-|
|--------------5--------------55--------------555--------------5-|
|--------------5--------------55--------------555--------------5-|
|--------------3--------------33--------------333--------------3-|
|----------------------------------------------------------------|

==================================================================
VERSE 2
GTR 1
|---33333------------------3-3---------------333---------------3-|
|---55555------------------5-5---------------555---------------5-|
|---55555------------------5-5---------------555---------------5-|
|---55555------6-6-6-6-6-6-5-5--6-6-6-6-6-6--555--6-6-6-6-6-6--5-|
|---33333-----4-4-3-3-4-4--3-3-4-4-3-3-4-4---333-4-4-3-3-4-4-3-3-|
|----------------------------------------------------------------|
 ^VERY FAINT^
GTR 2
|------------x8x8x8x8x8x8--8-8-x8x8x8x8x8x8--8-8-x8x8x8x8x8x8--8-|
|------------x8x8x8x8x8x8--8-8-x8x8x8x8x8x8--8-8-x8x8x8x8x8x8--8-|
|------------x9x9x9x9x9x9--9-9-x9x9x9x9x9x9--9-9-x9x9x9x9x9x9--9-|
|-3-----------------------1010--------------1010--------------10-|
|-------------------------1010--------------1010--------------10-|
|--------------------------8-8---------------8-8---------------8-|

==================================================================
CHORUS
BOTH GTRS
|----------------------------------------------------------------|
|----------------------------------------------------------------|
|------5555------------5555------------5555------------5555------|
|-3333-5555-6-5-6-3333-5555-6-5-6-3333-5555-6-5-6-3333-5555-6-5-6|
|-3333-3303-6-5-6-3333-3303-6-5-6-3333-3303-6-5-6-3333-3303-6-5-6|
|-1101------4-3-4-1101------4-3-4-1101------4-3-4-1101------4-3-4|

==================================================================
VERSE 3
GTR 1
|-1------------------------3-3--------------333----------------3-|
|-1------------------------5-5--------------555----------------5-|
|-2------------------------5-5--------------555----------------5-|
|-3------------6-6-6-6-6-6-5-5--6-6-6-6-6-6-555--6-6-6-6-6-6---5-|
|-3-----------4-4-3-3-4-4--3-3-4-4-3-3-4-4--333-4-4-3-3-4-4--3-3-|
|-1--------------------------------------------------------------|
              pm..........     pm..........     pm............
GTR 2
|-1----------x8x8x8x8x8x8--8-8-x8x8x8x8x8x8--8-8-x8x8x8x8x8x8--8-|
|-1----------x8x8x8x8x8x8--8-8-x8x8x8x8x8x8--8-8-x8x8x8x8x8x8--8-|
|-2----------x9x9x9x9x9x9--9-9-x9x9x9x9x9x9--9-9-x9x9x9x9x9x9--9-|
|-3-----------------------1010--------------1010--------------10-|
|-3-----------------------1010--------------1010--------------10-|
|-1------------------------8-8---------------8-8---------------8-|

==================================================================
INTER 1
GTR 2
|----------------------------------------------------------------|
|----------------------------------------------------------------|
|-55555555555555------------------55555555555555-----------------|
|-33333333333333-6666666-33333333-33333333333333-6666666-3333333-|
|----------------4444444-11111111----------------4444444-1111111-|
|----------------------------------------------------------------|

==================================================================
INTER 2 x2
GTR 1
|----------------------------------------------------------------|
|-------6---6-6-------------------------6----6-6-----------------|
|-12h13-x---x-x------6-------3-3--------x----x-x------6------3-3-|
|-------3---3-3------x-------x-x--------3----3-3------x------x-x-|
|--------------------4-------1-1----------------------4------1-1-|
|----------------------------------------------------------------|

GTR 2
|----------------------------------------------------------------|
|----------------------------------------------------------------|
|-55555555555555------------------55555555555555-----------------|
|-33333333333333-6666666-33333333-33333333333333-6666666-3333333-|
|----------------4444444-11111111----------------4444444-1111111-|
|----------------------------------------------------------------|

==================================================================
OUTRO 1 x4
GTR 1
|-----------------------------------------|
|-----------------------------------------|
|-----------------------66666666-55558888-|
|-3333-xx-3-(3333-3333)-xxxxxxxx-xxxxxxxx-|
|-3333-xx-3-(3333-3333)-44444444-33336666-|
|-1111-xx-1-(1111-1111)-------------------|
                 pm..
GTR2
|-----------------------------------------|
|-----------------------------------------|
|-----------------------9^9^9^9^-12121212-|  < SOMETIMES
|-----------------------------------------|
|-----------------------------------------|
|-----------------------------------------|

==================================================================
OUTRO 2
GTR 1
|----------------------------------------------------|
|----------------------------------------------------|
|----------------------------------------------xxx-5-|
|----------------------------------------------xxx-5-|
|---------4p3---------4p3---------4p3----------xxx-3-|
|-1111111-----1111111-----1111111-----1/444444-------|

GTR 2
|----------------------------------------------------|
|----------------------------------------------------|
|-10~------------------------------------------xxx-5-|
|-------------------------33-------------------xxx-5-|
|-------------------------33-------------------xxx-3-|
|-------------------------11-------------------------|

==================================================================
OUTRO 3
BOTH GTRS
|------------------------------------------------------------|
|------------------------------------------------------------|
|------------------------------------------------------------|
|------------------------------------------------------------|
|---------4p3---------4p3---------4p3----------3/4-3/4-3-----|
|-1111111-----1111111-----1111111-----1/444444-----------4-1-|
            
Submit corrections

comments powered by Disqus
↑ Back to top | Farse Tabs for Cigarette Through Polystyrene. Lyrics for acoustic guitar and electric guitar. Tablatures and chords are parodies/interpretations of the original songs. You may use it for private study, scholarship, research or language learning purposes only