>
 >
Cigarettes Through Polystyrene

Cigarettes Through Polystyrene Guitar Tabs

Farse - Cigarettes Through Polystyrene chords, tabs, tablatures, lyrics

Guitar lessons | Add/correct | Request | Top 50 tabs Artists:  A B C D E F G H I J K L M N O P Q R S T U V W X Y Z 0-9

Cigarettes Through Polystyrene Guitar Tabs – Farse

CD, Sheet music, Poster

Do you like Cigarettes Through Polystyrene? Share with your friends now
Tabs
	        Farse - Cigarettes through polystyrene    





intro x1
e|-----------------------------------------------------------------------------------|
B|-----------------------------------------------------------------------------------|
G|----------------------------666-555-888--------------------------------------------|
D|-3333-666-888-101010---3333-666-555-888---3333-666-888-101010---33333333---------3-|
A|-3333-666-888-101010---3333-444-333-666---3333-666-888-101010---33333333-34343---3-|
E|-1111-444-666-8-8-8----1111---------------1111-444-666-8-8-8----11111111------4--1-|
              

verse x2 -  * = 8 times  ' = 4 times
e|---------------------------------------------------------------------------|
B|---------------------------------------------------------------------------|
G|-----------------6'-5'-8'--------------------------------------------------|
D|-3'-6'-8'-10'-3'-6--5--8--3'-6'-8'-10'-3*--------3-------------------------|
A|-3--6--8--10--3--4--3--6--3--6--8--10--3--34343--3-------------------------|
E|-1--4--6--8---1-----------1--4--6--8---1-------4-1-------------------------|

pre-chorus x8 palm-mute all notes   
e|---------------------------------------------------------------------------|
B|---------------------------------------------------------------------------|
G|---------------------------------------------------------------------------|
D|---------------------------------------------------------------------------|
A|------3333-4444------------------------------------------------------------|
E|-1111-----------4--4-------------------------------------------------------|

chorus  x4  \ = slide
e|---------------------------------------------------------------------------|
B|---------------------------------------------------------------------------|
G|--------6-5-6--5-----------------------------------------------------------|
D|-3333---6-5-6--5--6--5-----------------------------------------------------|
A|-3333---4\3/4--3--6--5-----------------------------------------------------|
E|-1111-------------4--3-----------------------------------------------------|

ring out with first note and then play pre-chorus x3
 
middle 8 x8(funnily enough) * = 16 times ' = 8 times
e|---------------------------------------------------------------------------|
B|---------------------------------------------------------------------------|
G|-----------------second guitar plays this, listen for timing---------------|
D|---------------------------------(3)---------------------------------------|
A|----4'-3'------------------------(3)---------------------------------------|
E|-1*------------------------------(1)---------------------------------------|
                               
then play chorus x4

other bit  * = 8 times palm-muted ' = 8 times " = 4 times # = 16 times
e|--------------X1---------------------------X3------------------------------|
B|-(-------------------------------)(-----------------)----------------------|
G|-(----------------------6'-5"-8"-)(--------6'-5"-8"-)----------------------|
D|-(3*--------------------6--5--8--)(--3#----6--5--8--)----------------------|
A|-(3-----(drum solo)-----4--3--6--)(--3-----4--3--6--)----------------------|
E|-(1------------------------------)(--1--------------)----------------------|

outro x1  * = 8 times " = 16 times 
e|----------x3-------------------------------x3------------------------------|
B|-(-----------------)--------------(-----------------)----------------------|
G|-(-----------------)--------------(-----------------)----------------------|
D|-(-----------------)--3*----------(-----------------)--3"---------3--------|
A|-(-------------43--)--3-----------(-------------43--)--3---34343--3--------|
E|-(11-111-111-1---4-)--1-----------(11-111-111-1---4-)--1--------4-1--------|

were gonna drown in spite!!





Comments


Popular Farse tabs & chords
Cigarrettes Through Polystyrene Bass Tabs
Eggs Is Eggs Bass Tabs
Once Was A Rose Bass Tabs
Once Was A Rosecomplete Bass Tabs
Superficial Guy Bass Tabs
Whither Bass Tabs
Another Cliche Tabs
Cigarette Through Polystyrene Tabs
Firing Line Tabs
When The Laughter Stops 1 Tabs


Song lyrics



↑ Back to top | Tablatures and chords are parodies/interpretations of the original songs. You may use it for private study, scholarship, research or language learning purposes only
© 2014 AZChords.com Contact us | Privacy policy | DMCA | Add/correct tabs | Request tabs | Top 50 tabs