>
 >
Stein Des Anstosses

Stein Des Anstosses Guitar Tabs

Farin Urlaub - Stein Des Anstosses chords, tabs, tablatures, lyrics

Guitar lessons | Add/correct | Request | Top 50 tabs Artists:  A B C D E F G H I J K L M N O P Q R S T U V W X Y Z 0-9

Stein Des Anstosses Guitar Tabs – Farin Urlaub

CD, Sheet music, Poster

Do you like Stein Des Anstosses? Share with your friends now
Tabs
Stein des Anstosses
(M/T: Seffcheque/Hein)

Anm.:Das Lied wird fast durchgehend mit Akustik(stahl)gitarre begleitet, Variationen sind notiert
   a   E   B   C  F#5  F5  E5
1:-0-|-0-|-1-|-0-|---|---|---|
2:-1-|-0-|-3-|-1-|---|---|---|
3:-2-|-1-|-3-|-0-|---|---|---|
4:-2-|-2-|-3-|-2-|-4-|-3-|-2-|
5:-0-|-2-|-1-|-3-|-4-|-3-|-2-|
6:---|-0-|---|-3-|-2-|-1-|-0-|

Intro:
a E B C E
a E B C E


1.Strophe:
a                                 E
  Du stehst dir selbst im Weg und glaubst auch noch daran
B                                C           E
dass sich ohne dein Zutun nichts ändern kann
   a                         E
Du planst an deiner Zukunft, die dir nicht gehört
    B                              C                E
und merkst nicht, wie du dir alles selbst zerstörst


Interlude I(Mit Nylonakustik-nur Solo):
1:----------------------------------------------|--------------------------------12------|
2:--5-3-5---5-5-3-5---5-3-5---5-5-3-3-1-1/3-3-5-|-5-3-5---5-5-3-5---5-3-5---5----13(8x)--|
3:--5-4-5---5-5-4-5---5-4-5---5-5-4-4-2-2/4-4-5-|-5-4-5---5-5-4-5---5-4-5---5----14------|
4:----------------------------------------------|----------------------------------------|
5:----------------------------------------------|----------------------------------------|
6:----------------------------------------------|----------------------------------------|


2.Strophe:
   a                             E
Du bist sehr schnell mit Worten, die du nicht verstehst
B                        C               E
und bist erst zufrieden, tust du jemand' weh
      a                      E
Deine eig'nen Füße siehst du im Gedränge nicht
    B                                  C           E
Und glaubst noch, dass du fest auf der Erde stehst


Refrain:
   a             C          F#5            F5     E5
Im Leistungskurs leben wird dir nicht beigebracht
        a                  C             F#5         F5     E5
dass du alles, was sie dir geben, später doppelt zubezahlst
   a             C          F#5            F5     E5
Im Leistungskurs leben wird dir nicht beigebracht
        a                  C             F#5         F5     E5
dass du alles, was sie dir geben, später doppelt zubezahlst


Interlude II(mit leicht verzerrter E-Gitarre-nur Solo):
    a                             E
1:-----------------------------|-----------------------------|
2:-----------------------------|-----------------------------|
3:-----------------------------|-----------------------------|
4:--3--2--3--2--3--2--2--2--2--|--3--2--3--2--3--2--2--2--2--|
5:-----------------------------|-----------------------------|
6:-----------------------------|-----------------------------|
    B                              C           E
1:------------------------------|---------------------------|
2:------------------------------|---------------------------|
3:------------------------------|---------------------------|
4:--3--2--3--2--3--2--/5--2--2--|--3--2--3--2--3--2------2--|
5:------------------------------|--------------------2------|
6:------------------------------|---------------------------|


3.Strophe:
    a                         E
Von deiner eig'nen Größe bist du sehr überzeugt
   B                           C               E
Vergebens wartest du, dass man sich vor dir verbeugt
     a                                 E
dass du so schnell entscheidest, wirst du noch mal bereuen
B                      C                E
Über deine Fehler wird sich noch jemand freuen


Interlude I(Mit Nylonakustik-nur Solo):
1:----------------------------------------------|--------------------------------12------|
2:--5-3-5---5-5-3-5---5-3-5---5-5-3-3-1-1/3-3-5-|-5-3-5---5-5-3-5---5-3-5---5----13(8x)--|
3:--5-4-5---5-5-4-5---5-4-5---5-5-4-4-2-2/4-4-5-|-5-4-5---5-5-4-5---5-4-5---5----14------|
4:----------------------------------------------|----------------------------------------|
5:----------------------------------------------|----------------------------------------|
6:----------------------------------------------|----------------------------------------|


4.Strophe:
   a                             E
So lebst du schon seit Jahren in deiner eignen Welt
B                      C              E
  Du bist der Einzige, dem sie noch gefällt
     a                         E
Dann liegst du in den Trümmern deiner eig'nen Jugend
B                                       C                E
Deine Schrammen sagen dir, du hast dich selbst betrogen


Refrain(mit verzerrter E-Gitarre):
   a             C          F#5            F5     E5
Im Leistungskurs leben wird dir nicht beigebracht
        a                  C             F#5         F5     E5
dass du alles, was sie dir geben, später doppelt zubezahlst
   a             C          F#5            F5     E5
Im Leistungskurs leben wird dir nicht beigebracht
        a                  C             F#5         F5     E5    a
dass du alles, was sie dir geben, später doppelt zubezahlst


(Interlude mit Tekknomusik)


5.Strophe(nur Keyboard):
    a             E
Mit 25 Jahren, da bist du ausgebrannt
B                     C                 E
Keiner deiner Freunde gibt dir noch die Hand
a                  E
  Die Wenigen, die dir die Stange halten
B                              C             E
kannst du ruhig vergessen, die sind wie ihre Alten


(Interlude mit Tekknomusik)


6.1.Strophe(nur Keyboard):
a                     E
Anders als die Andern, so willst du sein
B                       C                 E
Wartest auf ein Urteil, wirfst den ersten Stein, Nein


Interlude III(normal):
a E B C E


6.2.Strophe:
a                    E
Perlen vor die Säue, die kein Wort verstehn'
B                            C             E
Geh nochmal zur Schule, denn da gehörst du hin


(Interlude mit Tekknomusik)


Refrain:
   a             C          F#5            F5     E5
Im Leistungskurs leben wird dir nicht beigebracht
        a                  C             F#5         F5     E5
dass du alles, was sie dir geben, später doppelt zubezahlst
   a             C          F#5            F5     E5
Im Leistungskurs leben wird dir nicht beigebracht
        a                  C             F#5         F5     E5   a
dass du alles, was sie dir geben, später doppelt zubezahlst





Comments


Popular Farin Urlaub tabs & chords
Alle Dasselbe Chords
Buch Zum Lesen Tabs
Der Papst Tabs
Dermitder Tabs
Farin Urlaub's "Ok" Tabs
Ok Tabs
PhäNomenal Egal 1 Tabs
Phanomenal Egal Tabs
Unsichtbar Tabs
Wo Ist Das Problem? Tabs


Song lyrics



↑ Back to top | Tablatures and chords are parodies/interpretations of the original songs. You may use it for private study, scholarship, research or language learning purposes only
© 2014 AZChords.com Contact us | Privacy policy | DMCA | Add/correct tabs | Request tabs | Top 50 tabs