» » »

Farin Urlaub's "Ok" Tabs (ver.1)

Artists:  A B C D E F G H I J K L M N O P Q R S T U V W X Y Z # 

Farin Urlaub's "Ok" Tabs (ver.1)

Farin Urlaub
Rating:
0/5 (0 votes)

Hard to play? Try these video lessons and learn fast.
                
Listen to the Song for the real rhythm and the real feeling!!

Intro (with heavy distortion)

 			fill 1                Chord 1
e---------------------	-----------------     ------------
H---------------------	-----------------     ------------
G-------5---------4---	----4^5^4--2-----     ------------
D---2---5----5----4---	-(string bending)     ------5-----
A---2---3----5----2---	-----------------     ------5-----
E---0--------3--------	-----------------     ------3-----

Bass:
A-------------33333---------22222----
E-------00000--------33333-----------


Guitar 1: Intro

Guitar 2:
part 1
-9-9-11-11-12-12-11-11-9-9-11-11-12-12-11-11---11-11-12-12-11-11---11-11-12-12-11-11-
-------------------------------------------12-12---------------12-12-----------------


fill 2: bass:
						
                                         Chord 2
E-----------7-7-7-8-7-5----------        --------
                                         --------
                                         --------
                                         ---9----
                                         ---9----
                                         ---7----

part 2 (clean)                          Ending:
------------------------------------    ---------------------------
------------------------------------    ---------------------------
------------------------------------    ---------------------------
-------5-5-5-5-5-4-4-4-4-5-4-2-2----    ------5-5-5-7-5-4-4-2-0-2--
------------------------------------    ---------------------------
------------------------------------    ---------------------------


heavy part (heavy distortion)
--------------------------------------------------------------
--------------------------------------------------------------
------------9-9--9-9---7-7-7--7---5-5--5-5--5-5---------------
------------9-9--9-9---7-7-7--7---5-5--5-5--5-5---------------
------------7-7--7-7---5-5-5--5---3-3--3-3--3-3---------------
------0-0-----------------------------------------------------

Intro + Guitar 2

Part 3
e----------19------------------19--------
b-------------20----19-20---------20-------


bass:

part 4
A-------------3-3-3-3--------2-2-2-2-------
E-------0-0-0---------3-3-3----------------


Part 5

|-----------------------| 
|-----------------------| 
|-----------------------| 
|-2---7---3---10-7-10---| 
|-2---7---3---10-7-10---| 
|-0---5---1---8--5-8----| 


part6

|------------------------------------| 
|------------------------------------| 
|------------7-------5-------5----7--| 
|-7---7---5--7-------5-------5----7--| 
|-7---7---5--5---3-3-3-3-2-2-2-2--7--| 
|-5---5---3-----------------------5--| 




Guitar 1:

part 7
-2--14--12-14-14--12-12-12-12-12-10-10-10-10-10-10-10-10-10-10--5-4-2---
-2--14--12-14-14--12-12-12-12-12-10-10-10-10-10-10-10-10-10-10--5-4-2---
-0--12--10-12-12--10-10-10-10-10-8--8--8--8--8--8--8--8--8--8---3-2-0---



Solo Guitar 2:
Improvisation
---------------12-15-12--12-------------------------------10--------10~10--10~11~
--11~~~9-11-12---------15--15-12-15-12-------------10-12~----12-9-12-----12------
---------------------------------------14-12-9--12-------------------------------

----12-14-15-17-19-20-19~\--------------------------------17-15-17-19-17-19-22-19
--------------------------12-------------15-17-15--------------------------------
--9--------------------------19161412--------------19-17-------------------------
--------------------------------------14-----------------------------------------

-22-24\-24\---------------
-------------101110~--9---


End:

Part 8	With Tremolo							fill 2
--------------------------------------------------	--12--10----12-----
--------------------------------------------------	-------------------
-----0---0-------0---0------0---0---4----2---0----	-------------------
---5---5---5---4---4---4--0---0---0---0----0---0--	-------------------
-7---7---7---5---5---5--3---3---3------3-----3----	-------------------
--------------------------------------------------	-------------------


Part 9
-------------------------------------------------------------
-------------------------------------------------------------
---------4-----4---------------4-------4----2----------------
-------0-----0------0-------0------0-----------------2-------
-----------------------------------------------------2-------
----3------3------3-------1------1-------------------0-------


Order:

1. Intro 2x (second time with fill 1 at the end)
2. Drums start at third time
3. After 4th time Chord 1
4. Farin begins to sing
5. Bass begins (4x)
6. Guitar 1(Intro) + Guitar 2 (part 1) (4x)
7. at the end Chord 2 and bass fill
8. 3 times part 2 4th time ending
9. heavy part (2x)
10. intro (2x,Guitar 1) + part 3 (Guitar 2)
11. part 4 (4x, bass)
12. Guitar 1(Intro) + Guitar 2 (part 1) (4x)
13. 3 times part 2 4th time ending
14. 3 times part 5
15. 1x part 6
16. 1x part 7
17. part 8 4 times with Solo of Farin
18. part 9 (2 times) Second time starts Guitar 2 with fill 2
19. part 10 (1 time)


lyrics:

Absolut nichts ist in Ordnung, absolut nichts ist OK, verkneif dir jegliches Mitleid und spar dir jedes Klischee
Ja, es geht mir beschissen, ja, es ist wegen dir, doch davon willst du nichts wissen, sonst wärst du sicherlich hier, bei mir.
Ich hasse dich
Ich hasse dich
Ich hasse dich
Absolut nichts ist mir heilig, absolut nichts seht noch fest, ich hätte niemals erwartet, dass du mich einfach verlässt.
Ich hasse meine Gefühle und meine Hilflosigkeit, aber ich bin mir ganz sicher, das geht vorbei mit der Zeit, mit der Zeit.
Am Morgen geht die Sonne auf  und ich hasse dich, die Welt nimmt weiter ihren Lauf und ich hasse dich, Menschen gehen von A nach B und ich hasse dich, im Winter fällt ein bisschen Schnee
Manchmal wünsch ich mir ich wäre tot, keine Gefühle- kein Problem, das klingt nach nem verlockenden Angebot, aber ich werds überleben und mit Glück bleibt nur eine Narbe zurück.
            
Hard to play? Try these video lessons and learn fast. | Correct




comments powered by Disqus
↑ Back to top | Tablatures and chords are parodies/interpretations of the original songs. You may use it for private study, scholarship, research or language learning purposes only