>
 >
Der Kavalier

Der Kavalier Guitar Tabs

Farin Urlaub - Der Kavalier chords, tabs, tablatures, lyrics

Guitar lessons | Add/correct | Request | Top 50 tabs Artists:  A B C D E F G H I J K L M N O P Q R S T U V W X Y Z 0-9

Der Kavalier Guitar Tabs – Farin Urlaub

CD, Sheet music, Poster

Do you like Der Kavalier? Share with your friends now
Tabs
Farin Urlaub - Der Kavalier



Note: Guitar 4 plays all the time very silent in the background the chords according to the riffs
	
	      

       Am	         C		D	         F    		 G		F#m
e|---------------|---------------|---------------|---------------|---------------|---------------|
H|---------------|-------1-------|-------3-----1-|-------1-------|-------3-------|-------7-------|
G|-----0-2-------|---------------|---0-2---------|---0-2-------2-|-----0---------|---4-6-------6-|
D|---2---------2-|---0-2-------2-|-0--------0----|-3--------3----|---0---------0-|-4--------4----|
A|-0--------0----|-3--------3----|---------------|---------------|-2--------2----|---------------|
E|---------------|---------------|---------------|---------------|---------------|---------------|


Intro:

Guitar 1:
					     	             
e|---------------|---------------|---------------|---------------|
H|---------------|---------------|---------------|---------------|
G|-----0-2-------|-----0-2-------|-----0-2-------|-----0-2-------|
D|---2---------2-|---2---------2-|---2---------2-|---2---------2-|
A|-0--------0----|-0--------0----|-0--------0----|-0--------0----|
E|---------------|---------------|---------------|---------------|

e|---------------|---------------|---------------|---------------|
H|---------------|---------------|---------------|---------------|
G|-----0-2-------|-----0-2-------|-----0-2-------|-----0-2-------|
D|---2---------2-|---2---------2-|---2---------2-|---2---------2-|
A|-0--------0----|-0--------0----|-0--------0----|-0--------0----|
E|---------------|---------------|---------------|---------------|

Guitar 2:

e|---------------|---------------|---------------|----------0~~~-|
H|---------------|---------------|---------------|---------------|
G|---------------|---------------|---------------|---------------|

e|-5~~~~~~~~~~~~-|----------8/7~-|---------------|---------------|
H|---------------|---------------|---------------|---------------|
G|---------------|---------------|---------------|---------------|



Verse:

Guitar 1:

e|---------------|---------------|---------------|---------------|
H|---------------|---------------|-------1-------|-------3-----1-|
G|-----0-2-------|-----0-2-------|---------------|---0-2---------|
D|---2---------2-|---2---------2-|---0-2-------2-|-0--------0----|
A|-0--------0----|-0--------0----|-3--------3----|---------------|
E|---------------|---------------|---------------|---------------|
       Er ist ein  älterer     Herr            mit gütigem 


e|---------------|---------------|---------------|---------------|
H|---------------|---------------|---------------|---------------|
G|-----0-2-------|-----0-2-------|-----0-2-------|-----0-2-------|	
D|---2---------2-|---2---------2-|---2---------2-|---2---------2-|
A|-0--------0----|-0--------0----|-0--------0----|-0--------0----|
E|---------------|---------------|---------------|---------------|
   Blick


e|---------------|---------------|---------------|---------------|
H|---------------|---------------|-------1-------|-------3-----1-|
G|-----0-2-------|-----0-2-------|---------------|---0-2---------|
D|---2---------2-|---2---------2-|---0-2-------2-|-0--------0----|
A|-0--------0----|-0--------0----|-3--------3----|---------------|
E|---------------|---------------|---------------|---------------|
       und     wenn    du  mit ihm gehst       kommst du niemals 


e|---------------|---------------|---------------|---------------|
H|---------------|---------------|---------------|---------------|
G|-----0-2-------|-----0-2-------|-----0-2-------|-----0-2-------|	
D|---2---------2-|---2---------2-|---2---------2-|---2---------2-|
A|-0--------0----|-0--------0----|-0--------0----|-0--------0----|
E|---------------|---------------|---------------|---------------|
   zurück						    Er hat


Guitar 2:

e|---------------|---------------|---------------|---------------|
H|---------------|---------------|---------------|---------------|
G|---------------|---------------|---------------|---------------|

e|---------------|---------------|---------------|---------------|
H|---------------|---------------|---------------|---------------|
G|---------------|---------------|---------------|---------------|

e|---------------|---------------|---------------|---------------|
H|---------------|---------------|---------------|---------------|
G|---------------|---------------|---------------|---------------|

e|-0/5~~~--------|-----5/3-0-----|---------------|---------------|
H|---------------|-------------3-|-1-3-1--2------|---------------|
G|---------------|---------------|---------------|---------------|


Refrain:

Guitar 1:

e|---------------|---------------|---------------|---------------|
H|-------1-------|-------3-------|---------------|---------------|
G|---0-2-------2-|-----0-------- |-----0-2-------|-----0-2-------|	
D|-3--------3----|---0---------0-|---2---------2-|---2---------2-|
A|---------------|-2--------2----|-0--------0----|-0--------0----|
E|---------------|---------------|---------------|---------------|
   unendlich      vieeel           Geduld		       und


e|---------------|---------------|---------------|---------------|---------------|
H|-------1-------|-------3-------|-------3-----1-|-------3-----1-|---3-----------|
G|---0-2-------2-|-----0-------- |---0-2---------|---0-2---------|---2--pause----|
D|-3--------3----|---0---------0-|-0--------0----|-0--------0----|---0-----------|
A|---------------|-2--------2----|---------------|---------------|---------------|
E|---------------|---------------|---------------|---------------|---------------|
   wenn du  ver   schwindest ist   es nicht        seine          schuld - nenn seinen namen


e|---------------|---------------|---------------|---------------|
H|---------------|---------------|---------------|---------------|
G|-----0-2-------|-----0-2-------|-----0-2-------|-----0-2-------|	
D|---2---------2-|---2---------2-|---2---------2-|---2---------2-|
A|-0--------0----|-0--------0----|-0--------0----|-0--------0----|
E|---------------|---------------|---------------|---------------|
   nie


Verse:


e|---------------|---------------|---------------|---------------|
H|---------------|---------------|-------1-------|-------3-----1-|
G|-----0-2-------|-----0-2-------|---------------|---0-2---------|
D|---2---------2-|---2---------2-|---0-2-------2-|-0--------0----|
A|-0--------0----|-0--------0----|-3--------3----|---------------|
E|---------------|---------------|---------------|---------------|
       Er ist ein  älterer     Herr            mit fliehendem


e|---------------|---------------|---------------|---------------|
H|---------------|---------------|---------------|---------------|
G|-----0-2-------|-----0-2-------|-----0-2-------|-----0-2-------|	
D|---2---------2-|---2---------2-|---2---------2-|---2---------2-|
A|-0--------0----|-0--------0----|-0--------0----|-0--------0----|
E|---------------|---------------|---------------|---------------|
   Kinn


e|---------------|---------------|---------------|---------------|
H|---------------|---------------|-------1-------|-------3-----1-|
G|-----0-2-------|-----0-2-------|---------------|---0-2---------|
D|---2---------2-|---2---------2-|---0-2-------2-|-0--------0----|
A|-0--------0----|-0--------0----|-3--------3----|---------------|
E|---------------|---------------|---------------|---------------|
       wenn     du ihn noch nicht  kennst      schaust du kaum zweimal 


e|---------------|---------------|---------------|---------------|
H|---------------|---------------|---------------|---------------|
G|-----0-2-------|-----0-2-------|-----0-2-------|-----0-2-------|
D|---2---------2-|---2---------2-|---2---------2-|---2---------2-|
A|-0--------0----|-0--------0----|-0--------0----|-0--------0----|
E|---------------|---------------|---------------|---------------|
   hin						               Er 

Guitar 2:

e|---------------|---------------|---------------|---------------|
H|---------------|---------------|---------------|---------------|
G|---------------|---------------|---------------|---------------|

e|---------------|---------------|---------------|---------------|
H|---------------|---------------|---------------|---------------|
G|---------------|---------------|---------------|---------------|

e|---------------|---------------|---------------|---------------|
H|---------------|---------------|---------------|---------------|
G|---------------|---------------|---------------|---------------|

e|-0/5~~~--------|-----5/3-0-----|---------------|---------------|
H|---------------|-------------3-|-1-3-1--2------|---------------|
G|---------------|---------------|---------------|---------------|




Refrain:

Guitar 1:

e|---------------|---------------|---------------|---------------|
H|-------1-------|-------3-------|---------------|---------------|
G|---0-2-------2-|-----0-------- |-----0-2-------|-----0-2-------|	
D|-3--------3----|---0---------0-|---2---------2-|---2---------2-|
A|---------------|-2--------2----|-0--------0----|-0--------0----|
E|---------------|---------------|---------------|---------------|
   kleidet sich    meist    nur in grau     		       er


e|---------------|---------------|---------------|---------------|---------------|
H|-------1-------|-------3-------|-------3-----1-|-------3-----1-|---3-----------|
G|---0-2-------2-|-----0-------- |---0-2---------|---0-2---------|---2--pause----|
D|-3--------3----|---0---------0-|-0--------0----|-0--------0----|---0-----------|
A|---------------|-2--------2----|---------------|---------------|---------------|
E|---------------|---------------|---------------|---------------|---------------|
   weiß wer du     bist und er     kennt      dich      ganz        genau - nenn seinen namen


Solo:

Guitar 1:

e|---------------|---------------|---------------|---------------|
H|-------7-------|-------7-------|-------7-------|-------7-------|
G|---4-6-------6-|---4-6-------6-|---4-6-------6-|---4-6-------6-|	
D|-4--------4----|-4--------4----|-4--------4----|-4--------4----|
A|---------------|---------------|---------------|---------------|
E|---------------|---------------|---------------|---------------|
   nicht

e|---------------|---------------|---------------|---------------|
H|---------------|---------------|---------------|---------------|
G|-----0-2-------|-----0-2-------|-----0-2-------|-----0-2-------|
D|---2---------2-|---2---------2-|---2---------2-|---2---------2-|
A|-0--------0----|-0--------0----|-0--------0----|-0--------0----|
E|---------------|---------------|---------------|---------------|

e|---------------|---------------|---------------|---------------|
H|-------7-------|-------7-------|-------7-------|-------7-------|
G|---4-6-------6-|---4-6-------6-|---4-6-------6-|---4-6-------6-|	
D|-4--------4----|-4--------4----|-4--------4----|-4--------4----|
A|---------------|---------------|---------------|---------------|
E|---------------|---------------|---------------|---------------|

e|---------------|---------------|---------------|---------------|
H|---------------|---------------|---------------|---------------|
G|-----0-2-------|-----0-2-------|-----0-2-------|-----0-2-------|
D|---2---------2-|---2---------2-|---2---------2-|---2---------2-|
A|-0--------0----|-0--------0----|-0--------0----|-0--------0----|
E|---------------|---------------|---------------|---------------|



Guitar 2

e|---------------|---------------|---------------|---------------|
H|---------------|---------------|---------------|---------------|
G|---------------|---------------|---------------|---------------|

e|---------------|---------------|---------------|---------------|
H|-------------8/|7~~--3~~-------|---------------|---------------|
G|---------------|---------------|---------------|---------------|

e|---------------|-------5/7/5~--|-3/5/3~~~------|---------------|
H|---------------|---------------|---------------|---------------|
G|-2~~~~~~~~~~/6-|---------------|---------------|---------------|

e|---------------|---------------|---------------|---------------|
H|---------------|---------------|---------------|-3/5/3---1--0--|
G|---------------|---------------|---------------|---------------|

Last note played in next verse
e|---------------|
H|---------------|
G|-2-------------|



Guitar 3 (overdriven):

e|---------------|---------------|---------------|---------------|
H|---------------|---------------|---------------|---------------|
G|---------------|----------1--2-|---------------|-------------0-|
D|-4~~~~---------|---------------|-4~~-----------|----------2----|
A|---------------|---------------|---------------|---------------|
E|---------------|---------------|---------------|---------------|

e|---------------|---------------|---------------|---------------|
H|---------------|----------3--1-|---------------|-0-------------|
G|-2~~~----------|---------------|-2~~~----------|-----2---1-----|
D|---------------|---------------|---------------|-------------2-|
A|---------------|---------------|---------------|---------------|
E|---------------|---------------|---------------|---------------|

e|---------------|---------------|---------------|---------------|
H|---------------|-------------5/|-7-------------|-5----2----0---|
G|---------------|---------------|---------------|---------------|
D|-4~~~----------|---------------|---------------|---------------|
A|---------------|---------------|---------------|---------------|
E|---------------|---------------|---------------|---------------|

e|---------------|---------------|---------------|---------------|
H|-2~~~--------0-|---------------|---------------|---------------|
G|---------------|---------------|-2-------------|---------------|
D|---------------|---------------|---------------|---------------|
A|---------------|---------------|---------------|---------------|
E|---------------|---------------|---------------|---------------|


Verse

e|---------------|---------------|---------------|---------------|
H|---------------|---------------|-------1-------|-------3-----1-|
G|-----0-2-------|-----0-2-------|---------------|---0-2---------|
D|---2---------2-|---2---------2-|---0-2-------2-|-0--------0----|
A|-0--------0----|-0--------0----|-3--------3----|---------------|
E|---------------|---------------|---------------|---------------|
       Er ist ein  älterer     Herr            ein echter   Kava-


e|---------------|---------------|---------------|---------------|
H|---------------|---------------|---------------|---------------|
G|-----0-2-------|-----0-2-------|-----0-2-------|-----0-2-------|	
D|---2---------2-|---2---------2-|---2---------2-|---2---------2-|
A|-0--------0----|-0--------0----|-0--------0----|-0--------0----|
E|---------------|---------------|---------------|---------------|
  -lier


e|---------------|---------------|---------------|---------------|
H|---------------|---------------|-------1-------|-------3-----1-|
G|-----0-2-------|-----0-2-------|---------------|---0-2---------|
D|---2---------2-|---2---------2-|---0-2-------2-|-0--------0----|
A|-0--------0----|-0--------0----|-3--------3----|---------------|
E|---------------|---------------|---------------|---------------|
       wenn    du  nur an ihn      denkst   steht er schon hinter 


e|---------------|---------------|---------------|---------------|
H|---------------|---------------|---------------|---------------|
G|-----0-2-------|-----0-2-------|-----0-2-------|-----0-2-------|
D|---2---------2-|---2---------2-|---2---------2-|---2---------2-|
A|-0--------0----|-0--------0----|-0--------0----|-0--------0----|
E|---------------|---------------|---------------|---------------|
   dir						              Auch



Refrain:

Guitar 1:

e|---------------|---------------|---------------|---------------|
H|-------1-------|-------3-------|---------------|---------------|
G|---0-2-------2-|-----0-------- |-----0-2-------|-----0-2-------|	
D|-3--------3----|---0---------0-|---2---------2-|---2---------2-|
A|---------------|-2--------2----|-0--------0----|-0--------0----|
E|---------------|---------------|---------------|---------------|
   du wirst ihm niemals entgehn   		            und


e|---------------|---------------|---------------|---------------|---------------|
H|-------1-------|-------3-------|-------3-----1-|-------3-----1-|---3-----------|
G|---0-2-------2-|-----0-------- |---0-2---------|---0-2---------|---2--pause----|
D|-3--------3----|---0---------0-|-0--------0----|-0--------0----|---0-----------|
A|---------------|-2--------2----|---------------|---------------|---------------|
E|---------------|---------------|---------------|---------------|---------------|
   wenn deine      Stunde dann     schlägt  wirst  du       ihn      sehn nenn seinen Namen

					  Guitar 2 plays here: 	e|---------3/5---|


Outro:

Guitar 1:

e|---------------|---------------|---------------|---------------|
H|---------------|---------------|---------------|---------------|
G|-----0-2-------|-----0-2-------|-----0-2-------|-----0-2-------| Repeat 6x
D|---2---------2-|---2---------2-|---2---------2-|---2---------2-|
A|-0--------0----|-0--------0----|-0--------0----|-0--------0----|
E|---------------|---------------|---------------|---------------| 
   nicht

Then

e|---------------|
H|---------------|
G|-2-------------| 
D|-2-------------|
A|-0-------------|
E|---------------|


Guitar2:

e|---------------|---------------|---------------|---------------|
H|---------------|---------------|---------------|---------------|
G|---------------|---------------|---------------|---------------|

e|---------------|---------------|-----3/5/3-----|-2/3/2---------|
H|---------------|---------------|---------------|---------------|
G|---------------|---------------|---------------|---------------|

e|---------------|---------------|---------------|---------------|
H|---------------|---------------|---------------|---------------|
G|---------------|---------------|---------------|---------------|

e|---------------|---------------|---------------|---------------|
H|---------------|---------------|---------------|---------------|
G|---------------|---------------|---------------|---------------|

e|---------------|---------------|---------------|---------------|
H|---------------|---------------|---------------|---------------|
G|---------------|---------------|---------------|---------------|

e|-----3/5/3-----|-2/3/2----0/2/-|-0-------------|---------------|
H|---------------|---------------|-----3/5/3-----|-1/3/1---1---0-|
G|---------------|---------------|---------------|---------------|

e|---------------|
H|-2-------------|
G|---------------|


End


------------
Chords:

Am : x02210
C  : x32010
Dm : xx0232
F  : x33211
F#m: x44222
------------





Comments


Popular Farin Urlaub tabs & chords
Alle Dasselbe Chords
Immer Noch Chords
Kein ZurüCk Chords
GlüCklich Tabs
Nichts Ist Ok Tabs
Ok Tabs
Ok 1 Tabs
Ph Nomenal Egal Tabs
Phanomenal Egal Tabs
Sumisu Tabs


Song lyrics



↑ Back to top | Tablatures and chords are parodies/interpretations of the original songs. You may use it for private study, scholarship, research or language learning purposes only
© 2014 AZChords.com Contact us | Privacy policy | DMCA | Add/correct tabs | Request tabs | Top 50 tabs