>
 >
Augenblick

Augenblick Guitar Tabs

Farin Urlaub - Augenblick chords, tabs, tablatures, lyrics

Guitar lessons | Add/correct | Request | Top 50 tabs Artists:  A B C D E F G H I J K L M N O P Q R S T U V W X Y Z 0-9

Augenblick Guitar Tabs – Farin Urlaub

CD, Sheet music, Poster

Do you like Augenblick? Share with your friends now
ChordsTabs
Augenblick (Farin Urlaub)
(M/T:Urlaub)

Anm.: Gitarre einen Halbton tiefer stimmen!

   D   D7  A   G   D4  D2  F   G4
1:-2-|-2-|-0-|-3-|-3-|-0-|-1-|-3-|
2:-3-|-1-|-2-|-3-|-3-|-3-|-1-|-3-|
3:-2-|-2-|-2-|-4-|-2-|-2-|-2-|-5-|
4:-0-|-0-|-2-|-5-|-0-|-0-|-3-|-5-|
5:---|---|-0-|-5-|---|---|-3-|-5-|
6:---|---|---|-3-|---|---|-1-|-3-|

----------------------------------------

Introriff: (8 mal)
   D       D7      D       D7
1:---------------------------------|
2:-----3-------1-------3-------1---|
3:---2---2---2---2---2---2---2---2-|
4:-0-------0-------0-------0-------|
5:---------------------------------|
6:---------------------------------|

irgendwann kommt folgendes zum Introriff dazu: (Ich nenne es Riff 1)
   D       D7        D       D7
1:---------------|---------------|
2:---------------|---------------|
3:-7---7-7-7-7---|---7---7-7-7-7-|
4:-7---7-7-7-7---|---7---7-7-7-7-|
5:-5---5-5-5-5---|---5---5-5-5-5-|
6:---------------|---------------|


Riff 2: (2 mal)
   A                                   A
1:-----------------------------------|-----------------------------------|
2:---------------3---1-----3---1-----|---------------3---1-----3---1-----|
3:-2---2---0-2---------2---------2-0-|-2---2---0-2---------2---------2-0-|
4:-----------------------------------|-----------------------------------|
5:-----------------------------------|-----------------------------------|
6:-----------------------------------|-----------------------------------|
   G                                   D
1:-----------------------------------|-----------------------------------|
2:---------------3---1-----3---1-----|---------------3---1-----3---1-----|
3:-2---2---0-2---------2---------2-0-|-2---2---0-2---------2---------2-0-|
4:-----------------------------------|-----------------------------------|
5:-----------------------------------|-----------------------------------|
6:-----------------------------------|-----------------------------------|


1.Strophe:
A
  Ich weiß es noch genau,
           
der Himmel über uns war blau.
   G                G4   G              
Du hast dich zu mir umgedreht.
    D               D4   D  D2  D
Die Haare waren vom Wind verweht.

A
  Es war so ein Moment,

den man sonst aus dem Kino kennt.
 G            G4     G
Unsere Blicke trafen sich.
   D                D4   D   D2   D   A
Es gab nur noch das Meer und dich für mich.


(Riff 2)


2.Strophe:
A           
  Es ist nicht lange her,

da war ich wieder mal am Meer.
    G              G4     G
Ich hab dich irgendwie vermisst,
    D              D4   D    D2    D
und hoffte dass du auch dort bist.

A
  Er kommt niemals zurück,

der perfekte Augenblick,
    G              G4     G               
der dich das Leben lieben lässt.
    D               D4   D   D2    D  A     G
Ich denk an ihn und halt ihn nicht zu fest.


D D7 D...(Introriff)

(Riff 1)

(Riff 2)


3.Strophe: (mit Riff 2)
A
  Ich weiß es noch genau,
                      
der Himmel über uns war blau.
   G                G4  G
Du hast dich zu mir umgedreht.
    D               D4   D  D2   D
Die Haare waren vom Wind verweht.

A
  Es war so ein Moment,

den man sonst aus dem Kino kennt.
G              G4    D
Unsere Blicke trafen sich.
   D                D4   D   D2   D   A
Es gab nur noch das Meer und dich für mich.

A            
  Es ist nicht lange her,
G                          F     D
  da war ich wieder mal am Meer.

A                    G
  Er kommt niemals zurück,
                   F     D
der perfekte Augenblick.
    D                                 D (introriff)  fdbk.
Ich denk an ihn und halt ihn nicht zu fest.





Comments


Popular Farin Urlaub tabs & chords
Alle Dasselbe Chords
Atras Chords
Petze Chords
Widmmawv Chords
Am Strand Tabs
Buch Zum Lesen Tabs
Dermitder Tabs
Farin Urlaub's "Ok" Tabs
Unter Wasser Intro Tabs
Wo Ist Das Problem? Tabs


Song lyrics



↑ Back to top | Tablatures and chords are parodies/interpretations of the original songs. You may use it for private study, scholarship, research or language learning purposes only
© 2014 AZChords.com Contact us | Privacy policy | DMCA | Add/correct tabs | Request tabs | Top 50 tabs