» » »

Far East Movement, Like A G6 Bass tabs (ver.2)

Artists:  A B C D E F G H I J K L M N O P Q R S T U V W X Y Z # 

Like A G6 Bass tabs (ver.2)

Far East Movement Tabs
 Rating:
3.6/5 (5 votes)
Like A G6 lessons Tabs too difficult? Try these video lessons and learn fast
1
                Iv done a video of me using this tab here...



In here is everything you need for this song + Fills i use just for fun.

Its follows pretty much the same pattern all the way through apart from in some places 
it cuts maybe a note or two....




Anyway, Main two parts look like this....



G|--------------------------|
D|--------------------------|
A|--------10--5-6-6-6--6-5--|
E|-3-3-3--------------------|


G|-------------------------|
D|-------------------------|
A|-------10--5-6--6--6-5---|
E|-3--3--------------------|



And the Fills look like this....



G|-----------------8-7------|
D|---------------------8-3--|
A|-------10--5-6------------|
E|-3--3---------------------|

G|-----------------------------|
D|-----------------------------|
A|-------10--5-6--6---5-6-5----|
E|-3--3---------------------6--|

G|------------------------------|
D|------------------------------|
A|--------10--5-6-6-6--5-6-5----|
E|-3-3-3---------------------6--|


This an awesome fun song to play, and even funner if you have an effects/synth pedal 
(you dont need one)

Would be gratefull if you could subscribe to me on you tube here...


and let me know how you get on with this tab...

Have Fun
            
Submit corrections

comments powered by Disqus
↑ Back to top | Far East Movement Bass for Like A G6. Lyrics for acoustic guitar and electric guitar. 1 Tablatures and chords are parodies/interpretations of the original songs. You may use it for private study, scholarship, research or language learning purposes only