» » »

Rocketeer Tabs (ver.1)

Artists:  A B C D E F G H I J K L M N O P Q R S T U V W X Y Z # 

Rocketeer Tabs (ver.1)

Far East Movement
Rating:
3/5 (2 votes)

Hard to play? Try these video lessons and learn fast.
                ---------------------------------------------------------------------------
---------------------------------------------------------------------------

Tuning:Standard Acoustic

Chords: C    a    B   E
	C    a    G   Bmaj
	
	 


     c           a           B           E
e|-------------------0---0------------------0---0---|
B|-------5---5-------1---1-------3---3------8---8---|
G|-------4---4-------2---2-------x---x------x---x---| x2
D|-------5---5-------2---2-------4---4------9---9---|
A|---3-------3---0-------0---2-------2---7------7---|
E|--------------------------------------------------|


     C           a           G           Bmaj        C           a 
e|-------------------0---0-------------------------------------------0---|
B|-------5---5-------1---1-------3---3-------4---4---1-------1-------1---|
G|-------4---4-------2---2-------0---0-------3---3-------0---0-------2---|
D|-------5---5-------2---2-------0---0-------4---4-------2---2-------2---|
A|---3-------3---0-------0-------2---2---2-------2-------3---3---0---0---|
E|---------------------------3-------3-----------------------------------|


     B             E
e|----------------------------|
B|-------3---3h5-------8h10---|
G|-------x---x---------x------|
D|-------4---4---------9------|
A|---2-------2-----7----------|
E|----------------------------|


     C           a           G           Bmaj          
e|-------------------0---0---------------------------| }
B|---1-------1-------1---1-------------------4---4---| }
G|-------0---0-------2---2-------0---0-------3---3---| }
D|-------2---2-------2---2-------0---0-------4---4---| }
A|-------3---3---0-------0-------2---2---2-------2---| }
E|---------------------------3-------3---------------| }
						       }  x4
     C           a           B           E	       }
e|-------0---0---------------------------------------| }
B|---1---1---1-------1---1-------3---3-------8---8---| }
G|-------0---0-------2---2-------x---x-------x---x---| }
D|-------2---2-------2---2-------4---4-------9---9---| }
A|-------3---3---0-------0---2-------2---7-------7---| }
E|---------------------------------------------------| }

     C           a           G           Bmaj          
e|-------------------0---0---------------------------|
B|---1-------1-------1---1-------------------4---4---|
G|-------0---0-------2---2-------0---0-------3---3---|
D|-------2---2-------2---2-------0---0-------4---4---|
A|-------3---3---0-------0-------2---2---2-------2---|
E|---------------------------3-------3---------------|

     C           a           B             
e|-------0---0---------------------------------------------|
B|---1---1---1-------1---1-------3---3h5-------8-------6---|
G|-------0---0-------2---2-------x---x---------x-------x---|
D|-------2---2-------2---2-------4---4---------9-------7---|
A|-------3---3---0-------0---2-------2-----7-------5-------|
E|---------------------------------------------------------|

     C           a           G           Bmaj          
e|-------------------0---0---------------------------| 
B|---1-------1-------1---1-------------------4---4---| 
G|-------0---0-------2---2-------0---0-------3---3---| 
D|-------2---2-------2---2-------0---0-------4---4---| 
A|-------3---3---0-------0-------2---2---2-------2---| 
E|---------------------------3-------3---------------| 
						       
     C           a           B           E	       
e|-------0---0---------------------------------------| 
B|---1---1---1-------1---1-------3---3-------8---8---| 
G|-------0---0-------2---2-------x---x-------x---x---| 
D|-------2---2-------2---2-------4---4-------9---9---| 
A|-------3---3---0-------0---2-------2---7-------7---| 
E|---------------------------------------------------| 

     C           a           G           Bmaj          
e|-------------------0---0---------------------------| 
B|---1-------1-------1---1-------------------4---4---| 
G|-------0---0-------2---2-------0---0-------3---3---| 
D|-------2---2-------2---2-------0---0-------4---4---| 
A|-------3---3---0-------0-------2---2---2-------2---| 
E|---------------------------3-------3---------------| 
           
     C           a           B           E	       
e|-------0---0---------------------------------------| 
B|---1---1---1-------1---1-------3---3-------8---8---| 
G|-------0---0-------2---2-------x---x-------x---x---| 
D|-------2---2-------2---2-------4---4-------9---9---| 
A|-------3---3---0-------0---2-------2---7-------7---| 
E|---------------------------------------------------| 

C           a
 Here we go, come with me
B                         E
 There's a world out there that we should see
C             a
 Take my hand, close your eyes
G                    Bmaj
 With you right here, I'm a rocketeer

C                   a
 Let's fly (fly,fly,fly,fly)
B
 Up, up here we go, go
E
 Up, up here we go, go
C                   a
 Let's fly (fly,fly,fly,fly)
G
 Up, up here we go, go
Bmaj
 Where we stop nobody knows

[Prohgress:]
C
 Where we go, we don't need roads 
a
 And where we stop nobody knows
B
 To the stars if you really want it
E
 Got a jetpack with your name on it
C
 Above the clouds and the atmosphere
a
 Say the words and we outta here
G
 Hold my hand if you feelin scared
Bmaj
 We're flyin up, up outta here

C           a
 Here we go, come with me
B                          E
 There's a world out there that we should see
C             a
 Take my hand, close your eyes
G                    Bmaj
 With you right here, I'm a rocketeer

C                   a
 Let's fly (fly,fly,fly,fly)
B
 Up, up here we go, go 
E
 Up, up here we go, go
C                   a
 Let's fly (fly,fly,fly,fly)
G
 Up, up here we go, go
Bmaj
 Where we stop nobody knows

[Kev Nish:]
C
 Baby, we can stay fly like a G6
a
 Shop the streets of Tokyo, get your fly kicks
B
 Girl, your always on my mind
 Got my head up in the sky
E
 And I'm never lookin down, feelin priceless
C
 Yeah, where we at? only few have known
a
 Were on some next level, super mario
G
 I hope this works out, cardio
Bmaj
 Until then let's fly

 Geronimo

C           a
 Here we go, come with me
B                         E
 There's a world out there that we should see
C             a
 Take me hand, close your eyes
G                    Bmaj
 With you right here, I'm a rocketeer

 Let's fly

[J-Splif:]
C
 Yo, now I ain't ever been to space before
a
 But I ain't never seen a face like yours
B
 You make me feel like I can touch the planets
E
 You are the moon girl, watch me grab it
C
 See, I ain't ever seen a star this close
a
 You got me stuck by the way you glow
G
 I'm like oh, oh, oh, oh
Bmaj
 I'm like oh, oh, oh, oh

C           a
 Here we go, come with me
B                         E
 There's a world out there that we should see
C             a
 Take me hand, close your eyes
G                    Bmaj
 With you right here, I'm a rocketeer


C                   a
 Let's fly (fly,fly,fly,fly)
B
 Up, up here we go, go 
E
 Up, up here we go, go
C                   a
 Let's fly (fly,fly,fly,fly)
G
 Up, up here we go, go
Bmaj
 Where we stop nobody knows

C a B E



my reference point

first tab eva
            
Hard to play? Try these video lessons and learn fast. | Correct




comments powered by Disqus
↑ Back to top | Tablatures and chords are parodies/interpretations of the original songs. You may use it for private study, scholarship, research or language learning purposes only