» » »

Bury White Tabs (ver.3)

Artists:  A B C D E F G H I J K L M N O P Q R S T U V W X Y Z # 

Bury White Tabs (ver.3)

Far
Rating:
0/5 (0 votes)

Hard to play? Try these video lessons and learn fast.
                x = Mute string.


Intro/First Verse:

E|---------------------------------------------------------------------------||
B|---------------------------------------------------------------------------||
G|---------------------------------------------------------------------------||
D|---------------------------------------------------------------------------||
A|-5-5--5-5-5--5-5-5--5-5-5--5-5-5--5-5-5--5-5-5--5-5-5----------------------||
D|-0-0--0-0-0--0-0-0--0-0-0--0-0-0--0-0-0--0-0-0--0-0-0----------------------||

Pre-Chorus:

E|---------------------------------------------------------------------------||
B|---------------------------------------------------------------------------||
G|---------------------------------------------------------------------------||
D|-4--0-0-0-0----------------------------------------------------------------||
A|-4--0-0-0-0----------------------------------------------------------------||
D|-4--0-0-0-0----------------------------------------------------------------||

Chorus:

E|---------------------------------------------------------------------------||
B|---------------------------------------------------------------------------||
G|-11-11-11-11-11-11-11-11-11-11-11-11-11-11---------------------------------||
D|--x--x--x--x--x--x--x--x--x--x--x--x--x--x--4-4-4-4-0----------------------||
A|--9--9--9--9--9--9--9--9--9--9--9--9--9--9--4-4-4-4-0----------------------||
D|--------------------------------------------4-4-4-4-0----------------------||

Second verse:

E|---------------------------------------------------------------------------||
B|---------------------------------------------------------------------------||
G|-7-7--7-7-7--7-7-7--7-7-7--7-7-7--7-7-7--7-7-7--7-7-7----------------------||
D|-x-x--x-x-x--x-x-x--x-x-x--x-x-x--x-x-x--x-x-x--x-x-x----------------------||
A|-5-5--5-5-5--5-5-5--5-5-5--5-5-5--5-5-5--5-5-5--5-5-5----------------------||
E|-0-0--0-0-0--0-0-0--0-0-0--0-0-0--0-0-0--0-0-0--0-0-0----------------------||

Outro:

E|---------------------------------------------------------------------------||
B|---------------------------------------------------------------------------||
G|---------------------------------------------------------------------------||
D|-4-0-0-0-0--4-5-7-0--------------------------------------------------------||
A|-4-0-0-0-0--4-5-7-0--------------------------------------------------------||
D|-4-0-0-0-0--4-5-7-0--------------------------------------------------------||


Song order:

Intro/first verse x 2
Pre-chorus x 4
intro/first verse x 4
Pre-chorus x 8
Chorus x 4
Second verse x 4
Pre-chorus x 8
chorus x 4
Pre-chorus x 8
Outro x 8
            
Hard to play? Try these video lessons and learn fast. | Correct




comments powered by Disqus
↑ Back to top | Tablatures and chords are parodies/interpretations of the original songs. You may use it for private study, scholarship, research or language learning purposes only