>
 >
 >
Bury White 1

Bury White 1 Guitar Tabs

Far - Bury White 1 chords, tabs, tablatures, lyrics

Guitar lessons | Add/correct | Request | Top 50 tabs Artists:  A B C D E F G H I J K L M N O P Q R S T U V W X Y Z 0-9

Bury White 1 Guitar Tabs – Far

CD, Sheet music, Poster

Do you like Bury White 1? Share with your friends now
Bass TabsTabsTabs v2Tabs v3
Bury White by Far, from the 1998 album Water & Solutions

Gtr I  Tune to Dropped D tuning (D A D G B E)

Intro
   (clean)
                           x12
|---------------------------|
|o-------------------------o|
|---------------------------|
|---------------------------|
|o-5--5-----5--5--5-----5--o|
|--0--0-----0--0--0-----0---|

   (distorted)
                           x4
|---------------------------|
|o-------------------------o|
|---------------------------|
|---------------------------|
|o-4\-0--0--0--0--0--0--0--o|
|--4\-0--0--0--0--0--0--0---|

Verse I
                           x9
|---------------------------|
|o-------------------------o|
|--7--7-----7--7--7-----7---|
|--7--7-----7--7--7-----7---|
|o-5--5-----5--5--5-----5--o|
|--0--0-----0--0--0-----0---|

Pre-chorus
                           x8
|---------------------------|
|o-------------------------o|
|---------------------------|
|---------------------------|
|o-4\-0--0--0--0--0--0--0--o|
|--4\-0--0--0--0--0--0--0---|

Chorus
|--------------------------|-------------------------|-------------|
|o-7--7--7--7--7--7--7--7--|-7--7--7--7--7--7--7-----|-------------|
|--6--6--6--6--6--6--6--6--|-6--6--6--6--6--6--6-----|-------------|
|--4--4--4--4--4--4--4--4--|-4--4--4--4--4--4--4-----|-------------|
|o-------------------------|----------------------4--|-4--4--4--4--|
|--------------------------|----------------------4--|-4--4--4--4--|

|-------------------------|------------------------------|
|-------------------------|-----------------------------o|
|-------------------------|------------------------------|
|-------------------------|------------------------------|
|-0~----------------------|-(0)-------------------------o|
|-0~----------------------|-(0)--------------------------|

Post-chorus
|-------------------------|-------------------------|
|-7--7--7--7--7--7--7--7--|-7--7--7--7--7-----------|
|-6--6--6--6--6--6--6--6--|-6--6--6--6--6-----------|
|-4--4--4--4--4--4--4--4--|-4--4--4--4--4--7--7--7--|
|-------------------------|----------------5--5--5--|
|-------------------------|----------------0--0--0--|

Verse II
                           x12
|---------------------------|
|o-------------------------o|
|--7--7-----7--7--7-----7---|
|--7--7-----7--7--7-----7---|
|o-5--5-----5--5--5-----5--o|
|--0--0-----0--0--0-----0---|

Repeat Pre-chorus
Repeat chorus

Interlude
|-------------------------|-------------------------|
|-7--7--7--7--7--7--7--7--|-7--7--7--7--7--7--7-----|
|-6--6--6--6--6--6--6--6--|-6--6--6--6--6--6--6-----|
|-4--4--4--4--4--4--4--4--|-4--4--4--4--4--4--4-----|
|-------------------------|----------------------0--|
|-------------------------|----------------------0--|

                           x4
|---------------------------|-------------------------|
|o-------------------------o|-------------------------|
|---------------------------|-------------------------|
|---------------------------|-------------------------|
|o-4\-0--0--0--0-----------o|-------------------------|
|--4\-0--0--0--0------------|-------------------------|

                           x4
|---------------------------|
|o-------------------------o|
|---------------------------|
|---------------------------|
|o-4\-0--0--0--0-----------o|
|--4\-0--0--0--0------------|

Outro
                           x7
|---------------------------|-------------------------|
|o-------------------------o|-------------------------|
|---------------------------|-------------------------|
|---------------------------|-------------------------|
|o-4\-0--0--0--4--5--7--0--o|-4\-0--0--0--4--5--7-----|
|--4\-0--0--0--4--5--7--0---|-4\-0--0--0--4--5--7-----|





Comments


Popular Far tabs & chords
Girl Bass Tabs
Joining The Circus Bass Tabs
Bury White 2 Tabs
Girl Tabs
I Like It Tabs
Love, American Style 1 Tabs
Man Overboard Tabs
Wear It So Well Tabs
Wear It So Well Water And Solutions Tabs
All Go Down Ukulele


Song lyrics



↑ Back to top | Tablatures and chords are parodies/interpretations of the original songs. You may use it for private study, scholarship, research or language learning purposes only
© 2014 AZChords.com Contact us | Privacy policy | DMCA | Add/correct tabs | Request tabs | Top 50 tabs