>
 >
Comets 1

Comets 1 Guitar Tabs

Fanfarlo - Comets 1 chords, tabs, tablatures, lyrics

Guitar lessons | Add/correct | Request | Top 50 tabs Artists:  A B C D E F G H I J K L M N O P Q R S T U V W X Y Z 0-9

Comets 1 Guitar Tabs – Fanfarlo

CD, Sheet music, Poster

Do you like Comets 1? Share with your friends now
TabsTabs v2
Fanfarlo - Comets (from Reservoir)

That's how I hear the picking part on the album.

Verse: G (320003) Em (022000) C (x32010)
Chorus: Em C G D (xx0232) D9b(add Eb played by bass: xx1242)

Picking pattern:

G                                 Em
------------------------------------------------------------------------|
-----0--------0--------0--------0--------0--------0--------0--------0---|
---0-------0---------0-------0---------0-------0---------0-------0------|
------------------------------------------------------------------------|
------------------------------------------------------------------------|
-3-----3-3-------3-3-----3-3------3-0------0-0-------0-0-----0-0------0-|

C                                   G
-------------------------------------------------------------------------|
-----1-------1---------1--------1--------0--------0--------0--------0----|
---0-------0---------0-------0---------0-------0---------0-------0-------|
-------------------------------------------------------------------------|
-3-----3-3-------3-3-----3-3------3--------------------------------------|
------------------------------------3-----3-3-------3-3-----3-3------3---|

G    	    	  Em
Look up, open the clouds
     	       C
Here comes the bombshell
     	   G
On the way home...

   G		   Em
And now we want the coal?
    	   C
we want the coal?
   	  G
Confusing times

G Em C G

    G			 Em
Cry murder, cry what you like
    	     C    	    G	D
Just let the comets lead the way

     	     Em
We'll tear it down
      	      C		G		D   D9b
We'll hold the truth by the neck, by the neck
      	    Em 	     	       C
Kick in the doors and burn the books
     	    G	      	   D D D D...
Try to forget, Try to forget

G Em C G (quick C G)

    G		   Em
And wear it like a flag
    	  C
Try to be patient
          G
On the way home

      G		           Em
Cause inside, behind every curtain
      	       C		       G  D
They count the minutes, they count the days

     	      Em
We'll tear it down
      	      C		    G		 D
We'll hold the truth by the neck, by the neck
      	    Em 	     	       C
Kick in the doors and burn the books
     	    G	      	   D
Try to forget, Try to forget

G Em G Em D

G Em
If you look at the horizon there is always something ducking out of sight
When you're looking at the treetops and they're scratching out their patterns in the sky

G    	    	  Em
Look up, open the clouds
     	       C
Here comes the bombshell
     	   G
On the way home...
G      C   G
On the way home...





Comments


Popular Fanfarlo tabs & chords
Im A Pilot Bass Tabs
The Walls Are Coming Down Bass Tabs
Atlas 2 Chords
Atlas 3 Chords
Fire Escape Chords
Harold T Wilkins Chords
Im A Pilot Chords
The Walls Are Coming Down Chords
Atlas Ukulele
Im A Pilot Ukulele


Song lyrics



↑ Back to top | Tablatures and chords are parodies/interpretations of the original songs. You may use it for private study, scholarship, research or language learning purposes only
© 2014 AZChords.com Contact us | Privacy policy | DMCA | Add/correct tabs | Request tabs | Top 50 tabs