>
 >
Comets

Comets Guitar Tabs

Fanfarlo - Comets chords, tabs, tablatures, lyrics

Guitar lessons | Add/correct | Request | Top 50 tabs Artists:  A B C D E F G H I J K L M N O P Q R S T U V W X Y Z 0-9

Comets Guitar Tabs – Fanfarlo

CD, Sheet music, Poster

Do you like Comets? Share with your friends now
TabsTabs v2
Verse Riff

G				 Em
E|-------------------|-------------------|-------------------|-------------------|
B|-----0-------0-----|-----0-------0-----|-----0-------0-----|------0-------0----|
G|--------0-------0--|--------0-------0--|--------0-------0--|--------0-------0--|
D|-------------------|----2-------2------|----2-------2------|----2-------2------|
A|----2-------2------|-------------------|--2-------2--------|--2-------2--------|
E|--3-------3--------|--3-------3--------|-------------------|-------------------|


C				G
|-------------------|-------------------|-------------------|-------------------|
|------1-------1----|------1-------1----|------0-------0----|------0-------0----|
|--------0-------0--|--------0-------0--|--------0-------0--|--------0-------0--|
|----2-------2------|----2-------2------|-------------------|-------------------|
|--3-------3--------|--3-------3--------|----2-------2------|----2-------2------|
|-------------------|-------------------|--3-------3--------|--3-------3--------|


     G   	   Em
Look up,open the clouds
			C 		G
Here comes the bombshell, on the way home
	G		Em
And 	now we want the coal?
	     .C 	     G
We want the coal, Confusing times

G      Em   C    G


	G		Em
Cry murder, cry what you like
		 C		G
Just let the comets, lead the way
	      -Em		C
Well tear it down,Well hold the truth

	G    		D

	       Em		     C
Kick in the doors and burn the books
	   G		D
Try to forget, try to forget

G	Em	C	G


	G	  	Em
And	wear it like flag

	    C  		     G
Try to be patient On the way home


	G			Em
Cause inside, behind every curtain
	            C 		     G
They count the minutes they count the days

		Em 			C
Well tear it down, Well hold the truth
	G		D 

	       Em		     C
Kick in the doors and burn the books
	   G		D
Try to forget try to forget
C							    G	 		Em		
If you look at the horizon there is always something ducking out of sight
C							   G	 		Em
When youre looking at the treetops and theyre scratching out their patterns in the sky

G		Em
Look up, open the coulds
	            C 		     G
Here comes the bombshell on the way home





Comments


Popular Fanfarlo tabs & chords
The Walls Are Coming Down Bass Tabs
Atlas 1 Chords
Atlas 2 Chords
Drowning Men Chords
Harold T Wilkins Chords
Im A Pilot Chords
Luna Chords
The Walls Are Coming Down Chords
Atlas Ukulele
Drowning Men Ukulele


Song lyrics



↑ Back to top | Tablatures and chords are parodies/interpretations of the original songs. You may use it for private study, scholarship, research or language learning purposes only
© 2014 AZChords.com Contact us | Privacy policy | DMCA | Add/correct tabs | Request tabs | Top 50 tabs