» » »

Supersonic Tabs (ver.2)

Artists:  A B C D E F G H I J K L M N O P Q R S T U V W X Y Z # 

Supersonic Tabs (ver.2)

Family Force 5
Rating:
3/5 (4 votes)

Hard to play? Try these video lessons and learn fast.
                Family Force 5
Supersonic

this is the keyboard intro at the beginning

E|---17--18-17--17--17-20-18-17---------|
B|-15--15-----15--15--------------------|  x 4
G|--------------------------------------|
D|--------------------------------------|
A|--------------------------------------|
D|--------------------------------------|

After the first two times played the guitar and bass intro comes in

E|---------------------------------------------------------------------|
B|---------------------------------------------------------------------|
G|---------------------------------------------------------------------|
D|-10--10-10--10-12-----10-12-00--10-10-12--10-12-00--10--10-10--10-12-|
A|-10--10-10--10-12-----10-12-00--10-10-12--10-12-00--10--10-10--10-12-|
D|-10--10-10--10-12-----10-12-00--10-10-12--10-12-00--10--10-10--10-12-|

verse its bass but I've tabbed it out for guitar

E|--------------------------------------|
B|--------------------------------------|  repeat it for
G|--------------------------------------|  how much time is needed
D|--------------------------------------|
A|--------------------------------------|
D|-10-12-00---10-10-12------------------|

Chorus:

then the chorus is pretty close to the intro you just have to listen for strumming. just 
the intro with the chorus and you'll get the feel.

then another verse (same as other verse)

chorus

crunk verse with no guitar

last chorus
--------------------------------------------------------

And there it is. Have fun getting crunk with ff5!
            
Hard to play? Try these video lessons and learn fast. | Correct




comments powered by Disqus
↑ Back to top | Tablatures and chords are parodies/interpretations of the original songs. You may use it for private study, scholarship, research or language learning purposes only