» » »

Replace Me Bass tabs (ver.1)

Artists:  A B C D E F G H I J K L M N O P Q R S T U V W X Y Z # 

Replace Me Bass tabs (ver.1)

Family Force 5
Rating:
0/5 (0 votes)

Hard to play? Try these video lessons and learn fast.
                -------------------------------------------------------------------------------
-------------------------------------------------------------------------------

Tuning: Drop D

Intro
G|------------|------------|------------|------------|--------|
D|------------|------------|------------|------------|--------|
A|---------22-|---------22-|---------22-|---------22-|--------|
D|-55--44-----|-55--44-----|-55--44-----|-55--44-----|-55--44-|

Verse
G|-----------|-----------|----------|-----------|
D|-----------|-----------|----------|-----------|
A|-----------|-----------|----------|-----------|
D|-5--x-5-55-|-5--x-5-545|2--x-2-22-|-2--x-2-212|

G|----------|-----------|-----------|
D|----------|-----------|-----------|
A|----------|-----------|-----------|
D|5--x-5-55-|-5--x-5-545|2--x-2-22-2|

Chorus
G|-----------|-----------|-----------|-----------|
D|-----------|-----------|-----------|-----------|
A|-2--x-2--2-|-5--x-5--5-|-----------|-----------|
D|-----------|-----------|-5--x-5--5-|-2--x-2--2-|x4

Post-Chorus
G|----------|------------|----------|--------------|
D|----------|------------|----------|--------------|
A|-2--------|----------5-|-2--------|------3-3-3-2-|
D|--023-023-|-023-023-0--|--023-023-|-023-0--------|

Pre-Verse
G|------------|------------|------------|
D|------------|------------|------------|
A|---------22-|---------22-|---------22-|
D|-55--44-----|-55--44-----|-55--44-----|

Verse
G|-----------|-----------|----------|-----------|
D|-----------|-----------|----------|-----------|
A|-----------|-----------|----------|-----------|
D|-5--x-5-55-|-5--x-5-545|2--x-2-22-|-2--x-2-212|

G|----------|-----------|-----------|
D|----------|-----------|-----------|
A|----------|-----------|-----------|
D|5--x-5-55-|-5--x-5-545|2--x-2-22-2|

Chorus
G|-----------|-----------|-----------|-----------|
D|-----------|-----------|-----------|-----------|
A|-2--x-2--2-|-5--x-5--5-|-----------|-----------|
D|-----------|-----------|-5--x-5--5-|-2--x-2--2-|x4

Bridge
G|-----------|-----------|-----------|-----------|
D|-----------|-----------|-----------|-----------|
A|-----------|-----------|-----------|-----------|
D|-2~--------|-4--2------|-4--2------|-4--2------|

G|----------|------------|----------|--------------|
D|----------|------------|----------|--------------|
A|-2--------|----------5-|-2--------|------3-3-3-2-|
D|--023-023-|-023-023-0--|--023-023-|-023-0--------|x4

Chorus
G|-----------|-----------|-----------|-----------|
D|-----------|-----------|-----------|-----------|
A|-2--x-2--2-|-5--x-5--5-|-----------|-----------|
D|-----------|-----------|-5--x-5--5-|-2--x-2--2-|x4

Outro
G|----------|------------|----------|--------------|
D|----------|------------|----------|--------------|
A|-2--------|----------5-|-2--------|------3-3-3-2-|
D|--023-023-|-023-023-0--|--023-023-|-023-0--------|

G|---------|---------|---------|---------|
D|---------|---------|---------|---------|
A|-2-------|-2-------|-2-------|-2-------|
D|--023-02-|--023-02-|--023-02-|--023-02-|

| /  slide up
| \  slide down
| h  hammer-on
| p  pull-off
| ~  let note ring
| +  harmonic
| x  Mute note
===============================================================================
            
Hard to play? Try these video lessons and learn fast. | Correct




comments powered by Disqus
↑ Back to top | Tablatures and chords are parodies/interpretations of the original songs. You may use it for private study, scholarship, research or language learning purposes only